  0
SECTION
  2
BLOCKS
  0
ENDSEC
  0
SECTION
  2
ENTITIES
  0
LINE
  8
Standard
  62
0
  10
1.000000
  20
11.050000
  30
0.000000
  11
4.000000
  21
11.050000
  31
0.000000
  0
LINE
  8
Standard
  62
0
  10
1.000000
  20
11.450000
  30
0.000000
  11
4.000000
  21
11.450000
  31
0.000000
  0
CIRCLE
  8
Standard
  62
0
  10
4.000000
  20
11.050000
  30
0.000000
  40
0.050000
  0
CIRCLE
  8
Standard
  62
0
  10
4.000000
  20
11.450000
  30
0.000000
  40
0.050000
  0
LINE
  8
Standard
  62
0
  10
1.000000
  20
12.050000
  30
0.000000
  11
4.000000
  21
12.050000
  31
0.000000
  0
LINE
  8
Standard
  62
0
  10
1.000000
  20
12.450000
  30
0.000000
  11
4.000000
  21
12.450000
  31
0.000000
  0
CIRCLE
  8
Standard
  62
0
  10
4.000000
  20
12.050000
  30
0.000000
  40
0.050000
  0
CIRCLE
  8
Standard
  62
0
  10
4.000000
  20
12.450000
  30
0.000000
  40
0.050000
  0
LINE
  8
Standard
  62
0
  10
1.000000
  20
13.050000
  30
0.000000
  11
4.000000
  21
13.050000
  31
0.000000
  0
LINE
  8
Standard
  62
0
  10
1.000000
  20
13.450000
  30
0.000000
  11
4.000000
  21
13.450000
  31
0.000000
  0
CIRCLE
  8
Standard
  62
0
  10
4.000000
  20
13.050000
  30
0.000000
  40
0.050000
  0
CIRCLE
  8
Standard
  62
0
  10
4.000000
  20
13.450000
  30
0.000000
  40
0.050000
  0
LINE
  8
Standard
  62
0
  10
1.000000
  20
14.050000
  30
0.000000
  11
4.000000
  21
14.050000
  31
0.000000
  0
LINE
  8
Standard
  62
0
  10
1.000000
  20
14.450000
  30
0.000000
  11
4.000000
  21
14.450000
  31
0.000000
  0
CIRCLE
  8
Standard
  62
0
  10
4.000000
  20
14.050000
  30
0.000000
  40
0.050000
  0
CIRCLE
  8
Standard
  62
0
  10
4.000000
  20
14.450000
  30
0.000000
  40
0.050000
  0
TEXT
  8
Standard
  62
0
  10
4.175034
  20
10.971338
  30
0.000000
  40
0.180000
  1
C0 -
  7
STANDARD
  0
TEXT
  8
Standard
  62
0
  10
4.175034
  20
11.371338
  30
0.000000
  40
0.180000
  1
C0 +
  7
STANDARD
  0
TEXT
  8
Standard
  62
0
  10
4.175034
  20
11.971338
  30
0.000000
  40
0.180000
  1
C1 -
  7
STANDARD
  0
TEXT
  8
Standard
  62
0
  10
4.175034
  20
12.371338
  30
0.000000
  40
0.180000
  1
C1 +
  7
STANDARD
  0
TEXT
  8
Standard
  62
0
  10
4.175034
  20
12.971338
  30
0.000000
  40
0.180000
  1
C2 -
  7
STANDARD
  0
TEXT
  8
Standard
  62
0
  10
4.175034
  20
13.371338
  30
0.000000
  40
0.180000
  1
C2 +
  7
STANDARD
  0
TEXT
  8
Standard
  62
0
  10
4.175034
  20
13.971338
  30
0.000000
  40
0.180000
  1
C3 -
  7
STANDARD
  0
TEXT
  8
Standard
  62
0
  10
4.175034
  20
14.371338
  30
0.000000
  40
0.180000
  1
C3 +
  7
STANDARD
  0
CIRCLE
  8
Standard
  62
0
  10
4.000000
  20
7.000000
  30
0.000000
  40
0.050000
  0
LINE
  8
Standard
  62
0
  10
4.000000
  20
7.000000
  30
0.000000
  11
-4.500000
  21
7.000000
  31
0.000000
  0
CIRCLE
  8
Standard
  62
0
  10
4.000000
  20
7.300000
  30
0.000000
  40
0.050000
  0
LINE
  8
Standard
  62
0
  10
4.000000
  20
7.300000
  30
0.000000
  11
-4.500000
  21
7.300000
  31
0.000000
  0
CIRCLE
  8
Standard
  62
0
  10
4.000000
  20
7.600000
  30
0.000000
  40
0.050000
  0
LINE
  8
Standard
  62
0
  10
4.000000
  20
7.600000
  30
0.000000
  11
-4.500000
  21
7.600000
  31
0.000000
  0
CIRCLE
  8
Standard
  62
0
  10
4.000000
  20
7.900000
  30
0.000000
  40
0.050000
  0
LINE
  8
Standard
  62
0
  10
4.000000
  20
7.900000
  30
0.000000
  11
-4.500000
  21
7.900000
  31
0.000000
  0
CIRCLE
  8
Standard
  62
0
  10
4.000000
  20
8.200000
  30
0.000000
  40
0.050000
  0
LINE
  8
Standard
  62
0
  10
4.000000
  20
8.200000
  30
0.000000
  11
-4.500000
  21
8.200000
  31
0.000000
  0
CIRCLE
  8
Standard
  62
0
  10
4.000000
  20
8.500000
  30
0.000000
  40
0.050000
  0
LINE
  8
Standard
  62
0
  10
4.000000
  20
8.500000
  30
0.000000
  11
-4.500000
  21
8.500000
  31
0.000000
  0
CIRCLE
  8
Standard
  62
0
  10
4.000000
  20
8.800000
  30
0.000000
  40
0.050000
  0
LINE
  8
Standard
  62
0
  10
4.000000
  20
8.800000
  30
0.000000
  11
-4.500000
  21
8.800000
  31
0.000000
  0
CIRCLE
  8
Standard
  62
0
  10
4.000000
  20
9.100000
  30
0.000000
  40
0.050000
  0
LINE
  8
Standard
  62
0
  10
4.000000
  20
9.100000
  30
0.000000
  11
-4.500000
  21
9.100000
  31
0.000000
  0
CIRCLE
  8
Standard
  62
0
  10
4.000000
  20
9.700000
  30
0.000000
  40
0.050000
  0
TEXT
  8
Standard
  62
0
  10
4.175034
  20
9.021338
  30
0.000000
  40
0.180000
  1
D0
  7
STANDARD
  0
TEXT
  8
Standard
  62
0
  10
4.175034
  20
8.721338
  30
0.000000
  40
0.180000
  1
D1
  7
STANDARD
  0
TEXT
  8
Standard
  62
0
  10
4.175034
  20
8.421339
  30
0.000000
  40
0.180000
  1
D2
  7
STANDARD
  0
TEXT
  8
Standard
  62
0
  10
4.175034
  20
8.121339
  30
0.000000
  40
0.180000
  1
D3
  7
STANDARD
  0
TEXT
  8
Standard
  62
0
  10
4.175034
  20
7.821339
  30
0.000000
  40
0.180000
  1
D4
  7
STANDARD
  0
TEXT
  8
Standard
  62
0
  10
4.175034
  20
7.521338
  30
0.000000
  40
0.180000
  1
D5
  7
STANDARD
  0
TEXT
  8
Standard
  62
0
  10
4.175034
  20
7.221339
  30
0.000000
  40
0.180000
  1
D6
  7
STANDARD
  0
TEXT
  8
Standard
  62
0
  10
4.175034
  20
6.921339
  30
0.000000
  40
0.180000
  1
D7
  7
STANDARD
  0
TEXT
  8
Standard
  62
0
  10
4.175034
  20
9.621338
  30
0.000000
  40
0.180000
  1
5V +
  7
STANDARD
  0
TEXT
  8
Standard
  62
0
  10
-5.839574
  20
8.297537
  30
0.000000
  40
0.180000
  1
74ACT245
  7
STANDARD
  0
LINE
  8
Standard
  62
0
  10
0.000000
  20
11.050000
  30
0.000000
  11
-1.000000
  21
11.050000
  31
0.000000
  0
LINE
  8
Standard
  62
0
  10
0.000000
  20
11.450000
  30
0.000000
  11
-1.400000
  21
11.450000
  31
0.000000
  0
LINE
  8
Standard
  62
0
  10
-1.400000
  20
11.450000
  30
0.000000
  11
-1.400000
  21
15.450000
  31
0.000000
  0
LINE
  8
Standard
  62
0
  10
-1.800000
  20
12.450000
  30
0.000000
  11
-1.800000
  21
15.450000
  31
0.000000
  0
LINE
  8
Standard
  62
0
  10
-2.200001
  20
13.450000
  30
0.000000
  11
-2.200000
  21
15.450000
  31
0.000000
  0
LINE
  8
Standard
  62
0
  10
-2.600000
  20
14.450000
  30
0.000000
  11
-2.600000
  21
15.450000
  31
0.000000
  0
LINE
  8
Standard
  62
0
  10
-2.700000
  20
16.200001
  30
0.000000
  11
-2.900000
  21
16.099998
  31
0.000000
  0
LINE
  8
Standard
  62
0
  10
-2.900000
  20
16.099998
  30
0.000000
  11
-2.700000
  21
15.999999
  31
0.000000
  0
LINE
  8
Standard
  62
0
  10
-2.700000
  20
15.999999
  30
0.000000
  11
-2.900000
  21
15.900001
  31
0.000000
  0
LINE
  8
Standard
  62
0
  10
-2.900000
  20
15.900001
  30
0.000000
  11
-2.700000
  21
15.799998
  31
0.000000
  0
LINE
  8
Standard
  62
0
  10
-2.700000
  20
15.799998
  30
0.000000
  11
-2.900000
  21
15.700000
  31
0.000000
  0
LINE
  8
Standard
  62
0
  10
-2.800000
  20
16.250000
  30
0.000000
  11
-2.700000
  21
16.200001
  31
0.000000
  0
LINE
  8
Standard
  62
0
  10
-2.900000
  20
15.700000
  30
0.000000
  11
-2.800000
  21
15.650001
  31
0.000000
  0
LINE
  8
Standard
  62
0
  10
-2.800000
  20
15.650001
  30
0.000000
  11
-2.800000
  21
15.450000
  31
0.000000
  0
LINE
  8
Standard
  62
0
  10
-2.500000
  20
16.200001
  30
0.000000
  11
-2.700000
  21
16.099998
  31
0.000000
  0
LINE
  8
Standard
  62
0
  10
-2.700000
  20
16.099998
  30
0.000000
  11
-2.500000
  21
15.999999
  31
0.000000
  0
LINE
  8
Standard
  62
0
  10
-2.500000
  20
15.999999
  30
0.000000
  11
-2.700000
  21
15.900001
  31
0.000000
  0
LINE
  8
Standard
  62
0
  10
-2.700000
  20
15.900001
  30
0.000000
  11
-2.500000
  21
15.799998
  31
0.000000
  0
LINE
  8
Standard
  62
0
  10
-2.500000
  20
15.799998
  30
0.000000
  11
-2.700000
  21
15.700000
  31
0.000000
  0
LINE
  8
Standard
  62
0
  10
-2.600000
  20
16.250000
  30
0.000000
  11
-2.500000
  21
16.200001
  31
0.000000
  0
LINE
  8
Standard
  62
0
  10
-2.700000
  20
15.700000
  30
0.000000
  11
-2.600000
  21
15.650001
  31
0.000000
  0
LINE
  8
Standard
  62
0
  10
-2.600000
  20
15.650001
  30
0.000000
  11
-2.600000
  21
15.450000
  31
0.000000
  0
LINE
  8
Standard
  62
0
  10
-2.300000
  20
16.200001
  30
0.000000
  11
-2.500000
  21
16.099998
  31
0.000000
  0
LINE
  8
Standard
  62
0
  10
-2.500000
  20
16.099998
  30
0.000000
  11
-2.300000
  21
15.999999
  31
0.000000
  0
LINE
  8
Standard
  62
0
  10
-2.300000
  20
15.999999
  30
0.000000
  11
-2.500000
  21
15.900001
  31
0.000000
  0
LINE
  8
Standard
  62
0
  10
-2.500000
  20
15.900001
  30
0.000000
  11
-2.300000
  21
15.799998
  31
0.000000
  0
LINE
  8
Standard
  62
0
  10
-2.300000
  20
15.799998
  30
0.000000
  11
-2.500000
  21
15.700000
  31
0.000000
  0
LINE
  8
Standard
  62
0
  10
-2.400000
  20
16.250000
  30
0.000000
  11
-2.300000
  21
16.200001
  31
0.000000
  0
LINE
  8
Standard
  62
0
  10
-2.500000
  20
15.700000
  30
0.000000
  11
-2.400000
  21
15.650001
  31
0.000000
  0
LINE
  8
Standard
  62
0
  10
-2.400000
  20
15.650001
  30
0.000000
  11
-2.400000
  21
15.450000
  31
0.000000
  0
LINE
  8
Standard
  62
0
  10
-2.100000
  20
16.200001
  30
0.000000
  11
-2.300000
  21
16.099998
  31
0.000000
  0
LINE
  8
Standard
  62
0
  10
-2.300000
  20
16.099998
  30
0.000000
  11
-2.100000
  21
15.999999
  31
0.000000
  0
LINE
  8
Standard
  62
0
  10
-2.100000
  20
15.999999
  30
0.000000
  11
-2.300000
  21
15.900001
  31
0.000000
  0
LINE
  8
Standard
  62
0
  10
-2.300000
  20
15.900001
  30
0.000000
  11
-2.100000
  21
15.799998
  31
0.000000
  0
LINE
  8
Standard
  62
0
  10
-2.100000
  20
15.799998
  30
0.000000
  11
-2.300000
  21
15.700000
  31
0.000000
  0
LINE
  8
Standard
  62
0
  10
-2.200000
  20
16.250000
  30
0.000000
  11
-2.100000
  21
16.200001
  31
0.000000
  0
LINE
  8
Standard
  62
0
  10
-2.300000
  20
15.700000
  30
0.000000
  11
-2.200000
  21
15.650001
  31
0.000000
  0
LINE
  8
Standard
  62
0
  10
-2.200000
  20
15.650001
  30
0.000000
  11
-2.200000
  21
15.450000
  31
0.000000
  0
LINE
  8
Standard
  62
0
  10
-1.900000
  20
16.200001
  30
0.000000
  11
-2.100000
  21
16.099998
  31
0.000000
  0
LINE
  8
Standard
  62
0
  10
-2.100000
  20
16.099998
  30
0.000000
  11
-1.900000
  21
15.999999
  31
0.000000
  0
LINE
  8
Standard
  62
0
  10
-1.900000
  20
15.999999
  30
0.000000
  11
-2.100000
  21
15.900001
  31
0.000000
  0
LINE
  8
Standard
  62
0
  10
-2.100000
  20
15.900001
  30
0.000000
  11
-1.900000
  21
15.799998
  31
0.000000
  0
LINE
  8
Standard
  62
0
  10
-1.900000
  20
15.799998
  30
0.000000
  11
-2.100000
  21
15.700000
  31
0.000000
  0
LINE
  8
Standard
  62
0
  10
-2.000000
  20
16.250000
  30
0.000000
  11
-1.900000
  21
16.200001
  31
0.000000
  0
LINE
  8
Standard
  62
0
  10
-2.100000
  20
15.700000
  30
0.000000
  11
-2.000000
  21
15.650001
  31
0.000000
  0
LINE
  8
Standard
  62
0
  10
-2.000000
  20
15.650001
  30
0.000000
  11
-2.000000
  21
15.450000
  31
0.000000
  0
LINE
  8
Standard
  62
0
  10
-1.700000
  20
16.200001
  30
0.000000
  11
-1.900000
  21
16.099998
  31
0.000000
  0
LINE
  8
Standard
  62
0
  10
-1.900000
  20
16.099998
  30
0.000000
  11
-1.700000
  21
15.999999
  31
0.000000
  0
LINE
  8
Standard
  62
0
  10
-1.700000
  20
15.999999
  30
0.000000
  11
-1.900000
  21
15.900001
  31
0.000000
  0
LINE
  8
Standard
  62
0
  10
-1.900000
  20
15.900001
  30
0.000000
  11
-1.700000
  21
15.799998
  31
0.000000
  0
LINE
  8
Standard
  62
0
  10
-1.700000
  20
15.799998
  30
0.000000
  11
-1.900000
  21
15.700000
  31
0.000000
  0
LINE
  8
Standard
  62
0
  10
-1.800000
  20
16.250000
  30
0.000000
  11
-1.700000
  21
16.200001
  31
0.000000
  0
LINE
  8
Standard
  62
0
  10
-1.900000
  20
15.700000
  30
0.000000
  11
-1.800000
  21
15.650001
  31
0.000000
  0
LINE
  8
Standard
  62
0
  10
-1.800000
  20
15.650001
  30
0.000000
  11
-1.800000
  21
15.450000
  31
0.000000
  0
LINE
  8
Standard
  62
0
  10
-1.500000
  20
16.200001
  30
0.000000
  11
-1.700000
  21
16.099998
  31
0.000000
  0
LINE
  8
Standard
  62
0
  10
-1.700000
  20
16.099998
  30
0.000000
  11
-1.500000
  21
15.999999
  31
0.000000
  0
LINE
  8
Standard
  62
0
  10
-1.500000
  20
15.999999
  30
0.000000
  11
-1.700000
  21
15.900001
  31
0.000000
  0
LINE
  8
Standard
  62
0
  10
-1.700000
  20
15.900001
  30
0.000000
  11
-1.500000
  21
15.799998
  31
0.000000
  0
LINE
  8
Standard
  62
0
  10
-1.500000
  20
15.799998
  30
0.000000
  11
-1.700000
  21
15.700000
  31
0.000000
  0
LINE
  8
Standard
  62
0
  10
-1.600001
  20
16.250000
  30
0.000000
  11
-1.500000
  21
16.200001
  31
0.000000
  0
LINE
  8
Standard
  62
0
  10
-1.700000
  20
15.700000
  30
0.000000
  11
-1.600001
  21
15.650001
  31
0.000000
  0
LINE
  8
Standard
  62
0
  10
-1.600001
  20
15.650001
  30
0.000000
  11
-1.600001
  21
15.450000
  31
0.000000
  0
LINE
  8
Standard
  62
0
  10
-1.300000
  20
16.200001
  30
0.000000
  11
-1.500000
  21
16.099998
  31
0.000000
  0
LINE
  8
Standard
  62
0
  10
-1.500000
  20
16.099998
  30
0.000000
  11
-1.300000
  21
15.999999
  31
0.000000
  0
LINE
  8
Standard
  62
0
  10
-1.300000
  20
15.999999
  30
0.000000
  11
-1.500000
  21
15.900001
  31
0.000000
  0
LINE
  8
Standard
  62
0
  10
-1.500000
  20
15.900001
  30
0.000000
  11
-1.300000
  21
15.799998
  31
0.000000
  0
LINE
  8
Standard
  62
0
  10
-1.300000
  20
15.799998
  30
0.000000
  11
-1.500000
  21
15.700000
  31
0.000000
  0
LINE
  8
Standard
  62
0
  10
-1.400000
  20
16.250000
  30
0.000000
  11
-1.300000
  21
16.200001
  31
0.000000
  0
LINE
  8
Standard
  62
0
  10
-1.500000
  20
15.700000
  30
0.000000
  11
-1.400000
  21
15.650001
  31
0.000000
  0
LINE
  8
Standard
  62
0
  10
-1.400000
  20
15.650001
  30
0.000000
  11
-1.400000
  21
15.450000
  31
0.000000
  0
LINE
  8
Standard
  62
0
  10
-1.100001
  20
16.200001
  30
0.000000
  11
-1.300000
  21
16.099998
  31
0.000000
  0
LINE
  8
Standard
  62
0
  10
-1.300000
  20
16.099998
  30
0.000000
  11
-1.100001
  21
15.999999
  31
0.000000
  0
LINE
  8
Standard
  62
0
  10
-1.100001
  20
15.999999
  30
0.000000
  11
-1.300000
  21
15.900001
  31
0.000000
  0
LINE
  8
Standard
  62
0
  10
-1.300000
  20
15.900001
  30
0.000000
  11
-1.100001
  21
15.799998
  31
0.000000
  0
LINE
  8
Standard
  62
0
  10
-1.100001
  20
15.799998
  30
0.000000
  11
-1.300000
  21
15.700000
  31
0.000000
  0
LINE
  8
Standard
  62
0
  10
-1.200000
  20
16.250000
  30
0.000000
  11
-1.100001
  21
16.200001
  31
0.000000
  0
LINE
  8
Standard
  62
0
  10
-1.300000
  20
15.700000
  30
0.000000
  11
-1.200000
  21
15.650001
  31
0.000000
  0
LINE
  8
Standard
  62
0
  10
-1.200000
  20
15.650001
  30
0.000000
  11
-1.200000
  21
15.450000
  31
0.000000
  0
LINE
  8
Standard
  62
0
  10
-1.200000
  20
16.250000
  30
0.000000
  11
-1.200000
  21
16.450001
  31
0.000000
  0
LINE
  8
Standard
  62
0
  10
-1.400000
  20
16.250000
  30
0.000000
  11
-1.400000
  21
16.450001
  31
0.000000
  0
LINE
  8
Standard
  62
0
  10
-1.600001
  20
16.250000
  30
0.000000
  11
-1.600001
  21
16.450001
  31
0.000000
  0
LINE
  8
Standard
  62
0
  10
-1.800000
  20
16.250000
  30
0.000000
  11
-1.800000
  21
16.450001
  31
0.000000
  0
LINE
  8
Standard
  62
0
  10
-2.000000
  20
16.250000
  30
0.000000
  11
-2.000000
  21
16.450001
  31
0.000000
  0
LINE
  8
Standard
  62
0
  10
-2.200000
  20
16.250000
  30
0.000000
  11
-2.200000
  21
16.450001
  31
0.000000
  0
LINE
  8
Standard
  62
0
  10
-2.400000
  20
16.250000
  30
0.000000
  11
-2.400000
  21
16.450001
  31
0.000000
  0
LINE
  8
Standard
  62
0
  10
-2.600000
  20
16.250000
  30
0.000000
  11
-2.600000
  21
16.450001
  31
0.000000
  0
LINE
  8
Standard
  62
0
  10
-2.800000
  20
16.450001
  30
0.000000
  11
-1.200000
  21
16.450001
  31
0.000000
  0
LINE
  8
Standard
  62
0
  10
-1.300000
  20
15.500001
  30
0.000000
  11
-1.100001
  21
15.399999
  31
0.000000
  0
LINE
  8
Standard
  62
0
  10
-1.100001
  20
15.499999
  30
0.000000
  11
-1.300000
  21
15.400001
  31
0.000000
  0
LINE
  8
Standard
  62
0
  10
-1.700000
  20
15.500001
  30
0.000000
  11
-1.500001
  21
15.399999
  31
0.000000
  0
LINE
  8
Standard
  62
0
  10
-1.500001
  20
15.499999
  30
0.000000
  11
-1.700000
  21
15.400001
  31
0.000000
  0
LINE
  8
Standard
  62
0
  10
-2.100000
  20
15.500001
  30
0.000000
  11
-1.900000
  21
15.399999
  31
0.000000
  0
LINE
  8
Standard
  62
0
  10
-1.900000
  20
15.499999
  30
0.000000
  11
-2.100000
  21
15.400001
  31
0.000000
  0
LINE
  8
Standard
  62
0
  10
-2.500000
  20
15.500001
  30
0.000000
  11
-2.300000
  21
15.399999
  31
0.000000
  0
LINE
  8
Standard
  62
0
  10
-2.300000
  20
15.499999
  30
0.000000
  11
-2.500000
  21
15.400001
  31
0.000000
  0
LINE
  8
Standard
  62
0
  10
-2.900000
  20
15.500001
  30
0.000000
  11
-2.700000
  21
15.399999
  31
0.000000
  0
LINE
  8
Standard
  62
0
  10
-2.700000
  20
15.499999
  30
0.000000
  11
-2.900000
  21
15.400001
  31
0.000000
  0
TEXT
  8
Standard
  62
0
  10
-5.839575
  20
12.347537
  30
0.000000
  40
0.180000
  1
74ACT245
  7
STANDARD
  0
LINE
  8
Standard
  62
0
  10
-2.400000
  20
12.050000
  30
0.000000
  11
-3.000000
  21
11.650000
  31
0.000000
  0
LINE
  8
Standard
  62
0
  10
-2.400000
  20
13.050000
  30
0.000000
  11
-3.000000
  21
12.249999
  31
0.000000
  0
LINE
  8
Standard
  62
0
  10
-2.400000
  20
14.050000
  30
0.000000
  11
-3.000000
  21
12.849999
  31
0.000000
  0
LINE
  8
Standard
  62
0
  10
-4.100000
  20
13.749999
  30
0.000000
  11
-4.500000
  21
13.749999
  31
0.000000
  0
LINE
  8
Standard
  62
0
  10
-6.400001
  20
14.349999
  30
0.000000
  11
-6.400001
  21
13.749999
  31
0.000000
  0
LINE
  8
Standard
  62
0
  10
-6.400001
  20
10.300000
  30
0.000000
  11
-6.400000
  21
9.700000
  31
0.000000
  0
LINE
  8
Standard
  62
0
  10
-6.400001
  20
14.349999
  30
0.000000
  11
-4.100000
  21
14.349999
  31
0.000000
  0
LINE
  8
Standard
  62
0
  10
-6.400001
  20
10.300000
  30
0.000000
  11
-4.100000
  21
10.300000
  31
0.000000
  0
LINE
  8
Standard
  62
0
  10
-6.400000
  20
9.700000
  30
0.000000
  11
-6.000000
  21
9.700000
  31
0.000000
  0
LINE
  8
Standard
  62
0
  10
-6.400001
  20
13.749999
  30
0.000000
  11
-6.000000
  21
13.749999
  31
0.000000
  0
CIRCLE
  8
Standard
  62
0
  10
4.000000
  20
-1.550000
  30
0.000000
  40
0.050000
  0
CIRCLE
  8
Standard
  62
0
  10
4.000000
  20
-0.550000
  30
0.000000
  40
0.050000
  0
CIRCLE
  8
Standard
  62
0
  10
4.000000
  20
0.450000
  30
0.000000
  40
0.050000
  0
CIRCLE
  8
Standard
  62
0
  10
4.000000
  20
1.450000
  30
0.000000
  40
0.050000
  0
CIRCLE
  8
Standard
  62
0
  10
4.000000
  20
2.450000
  30
0.000000
  40
0.050000
  0
TEXT
  8
Standard
  62
0
  10
4.175034
  20
2.371338
  30
0.000000
  40
0.180000
  1
S7 +
  7
STANDARD
  0
TEXT
  8
Standard
  62
0
  10
4.175034
  20
1.371338
  30
0.000000
  40
0.180000
  1
S6 +
  7
STANDARD
  0
TEXT
  8
Standard
  62
0
  10
4.175034
  20
0.371338
  30
0.000000
  40
0.180000
  1
S5 +
  7
STANDARD
  0
TEXT
  8
Standard
  62
0
  10
4.175034
  20
-0.628662
  30
0.000000
  40
0.180000
  1
S4 +
  7
STANDARD
  0
TEXT
  8
Standard
  62
0
  10
4.175034
  20
-1.628662
  30
0.000000
  40
0.180000
  1
S3 +
  7
STANDARD
  0
POLYLINE
  8
Standard
  62
5
  66
1
  70
1
  0
VERTEX
  8
Standard
  62
5
  10
-6.000000
  20
6.850000
  30
0.000000
  0
VERTEX
  8
Standard
  62
5
  10
-6.000000
  20
9.850000
  30
0.000000
  0
VERTEX
  8
Standard
  62
5
  10
-4.500000
  20
9.850000
  30
0.000000
  0
VERTEX
  8
Standard
  62
5
  10
-4.500000
  20
6.850000
  30
0.000000
  0
SEQEND
  8
Standard
  62
5
  0
POLYLINE
  8
Standard
  62
5
  66
1
  70
1
  0
VERTEX
  8
Standard
  62
5
  10
-6.000000
  20
10.900000
  30
0.000000
  0
VERTEX
  8
Standard
  62
5
  10
-6.000000
  20
13.900001
  30
0.000000
  0
VERTEX
  8
Standard
  62
5
  10
-4.500000
  20
13.900001
  30
0.000000
  0
VERTEX
  8
Standard
  62
5
  10
-4.500000
  20
10.900000
  30
0.000000
  0
SEQEND
  8
Standard
  62
5
  0
LINE
  8
Standard
  62
0
  10
-3.800000
  20
9.400000
  30
0.000000
  11
-4.500000
  21
9.400000
  31
0.000000
  0
POLYLINE
  8
Standard
  62
5
  66
1
  70
0
  0
VERTEX
  8
Standard
  62
5
  10
0.250000
  20
11.125000
  30
0.000000
  0
VERTEX
  8
Standard
  62
5
  10
0.375000
  20
11.375000
  30
0.000000
  0
SEQEND
  8
Standard
  62
5
  0
POLYLINE
  8
Standard
  62
5
  66
1
  70
0
  0
VERTEX
  8
Standard
  62
5
  10
0.375000
  20
11.375000
  30
0.000000
  0
VERTEX
  8
Standard
  62
5
  10
0.125000
  20
11.375000
  30
0.000000
  0
SEQEND
  8
Standard
  62
5
  0
POLYLINE
  8
Standard
  62
5
  66
1
  70
0
  0
VERTEX
  8
Standard
  62
5
  10
0.125000
  20
11.375000
  30
0.000000
  0
VERTEX
  8
Standard
  62
5
  10
0.250000
  20
11.125000
  30
0.000000
  0
SEQEND
  8
Standard
  62
5
  0
POLYLINE
  8
Standard
  62
5
  66
1
  70
0
  0
VERTEX
  8
Standard
  62
5
  10
0.850000
  20
11.080000
  30
0.000000
  0
VERTEX
  8
Standard
  62
5
  10
0.719117
  20
11.088530
  30
0.000000
  0
SEQEND
  8
Standard
  62
5
  0
POLYLINE
  8
Standard
  62
5
  66
1
  70
0
  0
VERTEX
  8
Standard
  62
5
  10
0.719117
  20
11.088530
  30
0.000000
  0
VERTEX
  8
Standard
  62
5
  10
0.780882
  20
11.191471
  30
0.000000
  0
SEQEND
  8
Standard
  62
5
  0
POLYLINE
  8
Standard
  62
5
  66
1
  70
0
  0
VERTEX
  8
Standard
  62
5
  10
0.780882
  20
11.191471
  30
0.000000
  0
VERTEX
  8
Standard
  62
5
  10
0.850000
  20
11.080000
  30
0.000000
  0
SEQEND
  8
Standard
  62
5
  0
POLYLINE
  8
Standard
  62
5
  66
1
  70
1
  0
VERTEX
  8
Standard
  62
5
  10
0.000000
  20
11.000000
  30
0.000000
  0
VERTEX
  8
Standard
  62
5
  10
0.000000
  20
11.500000
  30
0.000000
  0
VERTEX
  8
Standard
  62
5
  10
1.000000
  20
11.500000
  30
0.000000
  0
VERTEX
  8
Standard
  62
5
  10
1.000000
  20
11.000000
  30
0.000000
  0
SEQEND
  8
Standard
  62
5
  0
LINE
  8
Standard
  62
5
  10
0.375000
  20
11.125000
  30
0.000000
  11
0.125000
  21
11.125000
  31
0.000000
  0
LINE
  8
Standard
  62
5
  10
0.250000
  20
11.125000
  30
0.000000
  11
0.250000
  21
11.050000
  31
0.000000
  0
LINE
  8
Standard
  62
5
  10
0.250000
  20
11.450000
  30
0.000000
  11
0.250000
  21
11.375000
  31
0.000000
  0
LINE
  8
Standard
  62
5
  10
0.000000
  20
11.450000
  30
0.000000
  11
0.250000
  21
11.450000
  31
0.000000
  0
LINE
  8
Standard
  62
5
  10
0.900000
  20
11.450000
  30
0.000000
  11
1.000000
  21
11.450000
  31
0.000000
  0
LINE
  8
Standard
  62
5
  10
0.000000
  20
11.050000
  30
0.000000
  11
0.250000
  21
11.050000
  31
0.000000
  0
LINE
  8
Standard
  62
5
  10
0.900000
  20
11.050000
  30
0.000000
  11
1.000000
  21
11.050000
  31
0.000000
  0
LINE
  8
Standard
  62
5
  10
0.650000
  20
11.400000
  30
0.000000
  11
0.650000
  21
11.100000
  31
0.000000
  0
LINE
  8
Standard
  62
5
  10
0.650000
  20
11.300000
  30
0.000000
  11
0.900000
  21
11.450000
  31
0.000000
  0
LINE
  8
Standard
  62
5
  10
0.650000
  20
11.200000
  30
0.000000
  11
0.750000
  21
11.139999
  31
0.000000
  0
LINE
  8
Standard
  62
5
  10
0.850000
  20
11.080000
  30
0.000000
  11
0.900000
  21
11.050000
  31
0.000000
  0
POLYLINE
  8
Standard
  62
5
  66
1
  70
0
  0
VERTEX
  8
Standard
  62
5
  10
0.250000
  20
12.125000
  30
0.000000
  0
VERTEX
  8
Standard
  62
5
  10
0.375000
  20
12.375000
  30
0.000000
  0
SEQEND
  8
Standard
  62
5
  0
POLYLINE
  8
Standard
  62
5
  66
1
  70
0
  0
VERTEX
  8
Standard
  62
5
  10
0.375000
  20
12.375000
  30
0.000000
  0
VERTEX
  8
Standard
  62
5
  10
0.125000
  20
12.375000
  30
0.000000
  0
SEQEND
  8
Standard
  62
5
  0
POLYLINE
  8
Standard
  62
5
  66
1
  70
0
  0
VERTEX
  8
Standard
  62
5
  10
0.125000
  20
12.375000
  30
0.000000
  0
VERTEX
  8
Standard
  62
5
  10
0.250000
  20
12.125000
  30
0.000000
  0
SEQEND
  8
Standard
  62
5
  0
POLYLINE
  8
Standard
  62
5
  66
1
  70
0
  0
VERTEX
  8
Standard
  62
5
  10
0.850000
  20
12.080000
  30
0.000000
  0
VERTEX
  8
Standard
  62
5
  10
0.719117
  20
12.088530
  30
0.000000
  0
SEQEND
  8
Standard
  62
5
  0
POLYLINE
  8
Standard
  62
5
  66
1
  70
0
  0
VERTEX
  8
Standard
  62
5
  10
0.719117
  20
12.088530
  30
0.000000
  0
VERTEX
  8
Standard
  62
5
  10
0.780882
  20
12.191471
  30
0.000000
  0
SEQEND
  8
Standard
  62
5
  0
POLYLINE
  8
Standard
  62
5
  66
1
  70
0
  0
VERTEX
  8
Standard
  62
5
  10
0.780882
  20
12.191471
  30
0.000000
  0
VERTEX
  8
Standard
  62
5
  10
0.850000
  20
12.080000
  30
0.000000
  0
SEQEND
  8
Standard
  62
5
  0
POLYLINE
  8
Standard
  62
5
  66
1
  70
1
  0
VERTEX
  8
Standard
  62
5
  10
0.000000
  20
12.000000
  30
0.000000
  0
VERTEX
  8
Standard
  62
5
  10
0.000000
  20
12.500000
  30
0.000000
  0
VERTEX
  8
Standard
  62
5
  10
1.000000
  20
12.500000
  30
0.000000
  0
VERTEX
  8
Standard
  62
5
  10
1.000000
  20
12.000000
  30
0.000000
  0
SEQEND
  8
Standard
  62
5
  0
LINE
  8
Standard
  62
5
  10
0.375000
  20
12.125000
  30
0.000000
  11
0.125000
  21
12.125000
  31
0.000000
  0
LINE
  8
Standard
  62
5
  10
0.250000
  20
12.125000
  30
0.000000
  11
0.250000
  21
12.050000
  31
0.000000
  0
LINE
  8
Standard
  62
5
  10
0.250000
  20
12.450000
  30
0.000000
  11
0.250000
  21
12.375000
  31
0.000000
  0
LINE
  8
Standard
  62
5
  10
0.000000
  20
12.450000
  30
0.000000
  11
0.250000
  21
12.450000
  31
0.000000
  0
LINE
  8
Standard
  62
5
  10
0.900000
  20
12.450000
  30
0.000000
  11
1.000000
  21
12.450000
  31
0.000000
  0
LINE
  8
Standard
  62
5
  10
0.000000
  20
12.050000
  30
0.000000
  11
0.250000
  21
12.050000
  31
0.000000
  0
LINE
  8
Standard
  62
5
  10
0.900000
  20
12.050000
  30
0.000000
  11
1.000000
  21
12.050000
  31
0.000000
  0
LINE
  8
Standard
  62
5
  10
0.650000
  20
12.400000
  30
0.000000
  11
0.650000
  21
12.100000
  31
0.000000
  0
LINE
  8
Standard
  62
5
  10
0.650000
  20
12.300000
  30
0.000000
  11
0.900000
  21
12.450000
  31
0.000000
  0
LINE
  8
Standard
  62
5
  10
0.650000
  20
12.200000
  30
0.000000
  11
0.750000
  21
12.139999
  31
0.000000
  0
LINE
  8
Standard
  62
5
  10
0.850000
  20
12.080000
  30
0.000000
  11
0.900000
  21
12.050000
  31
0.000000
  0
POLYLINE
  8
Standard
  62
5
  66
1
  70
0
  0
VERTEX
  8
Standard
  62
5
  10
0.250000
  20
13.125000
  30
0.000000
  0
VERTEX
  8
Standard
  62
5
  10
0.375000
  20
13.375000
  30
0.000000
  0
SEQEND
  8
Standard
  62
5
  0
POLYLINE
  8
Standard
  62
5
  66
1
  70
0
  0
VERTEX
  8
Standard
  62
5
  10
0.375000
  20
13.375000
  30
0.000000
  0
VERTEX
  8
Standard
  62
5
  10
0.125000
  20
13.375000
  30
0.000000
  0
SEQEND
  8
Standard
  62
5
  0
POLYLINE
  8
Standard
  62
5
  66
1
  70
0
  0
VERTEX
  8
Standard
  62
5
  10
0.125000
  20
13.375000
  30
0.000000
  0
VERTEX
  8
Standard
  62
5
  10
0.250000
  20
13.125000
  30
0.000000
  0
SEQEND
  8
Standard
  62
5
  0
POLYLINE
  8
Standard
  62
5
  66
1
  70
0
  0
VERTEX
  8
Standard
  62
5
  10
0.850000
  20
13.080000
  30
0.000000
  0
VERTEX
  8
Standard
  62
5
  10
0.719117
  20
13.088530
  30
0.000000
  0
SEQEND
  8
Standard
  62
5
  0
POLYLINE
  8
Standard
  62
5
  66
1
  70
0
  0
VERTEX
  8
Standard
  62
5
  10
0.719117
  20
13.088530
  30
0.000000
  0
VERTEX
  8
Standard
  62
5
  10
0.780882
  20
13.191471
  30
0.000000
  0
SEQEND
  8
Standard
  62
5
  0
POLYLINE
  8
Standard
  62
5
  66
1
  70
0
  0
VERTEX
  8
Standard
  62
5
  10
0.780882
  20
13.191471
  30
0.000000
  0
VERTEX
  8
Standard
  62
5
  10
0.850000
  20
13.080000
  30
0.000000
  0
SEQEND
  8
Standard
  62
5
  0
POLYLINE
  8
Standard
  62
5
  66
1
  70
1
  0
VERTEX
  8
Standard
  62
5
  10
0.000000
  20
13.000000
  30
0.000000
  0
VERTEX
  8
Standard
  62
5
  10
0.000000
  20
13.500000
  30
0.000000
  0
VERTEX
  8
Standard
  62
5
  10
1.000000
  20
13.500000
  30
0.000000
  0
VERTEX
  8
Standard
  62
5
  10
1.000000
  20
13.000000
  30
0.000000
  0
SEQEND
  8
Standard
  62
5
  0
LINE
  8
Standard
  62
5
  10
0.375000
  20
13.125000
  30
0.000000
  11
0.125000
  21
13.125000
  31
0.000000
  0
LINE
  8
Standard
  62
5
  10
0.250000
  20
13.125000
  30
0.000000
  11
0.250000
  21
13.050000
  31
0.000000
  0
LINE
  8
Standard
  62
5
  10
0.250000
  20
13.450000
  30
0.000000
  11
0.250000
  21
13.375000
  31
0.000000
  0
LINE
  8
Standard
  62
5
  10
0.000000
  20
13.450000
  30
0.000000
  11
0.250000
  21
13.450000
  31
0.000000
  0
LINE
  8
Standard
  62
5
  10
0.900000
  20
13.450000
  30
0.000000
  11
1.000000
  21
13.450000
  31
0.000000
  0
LINE
  8
Standard
  62
5
  10
0.000000
  20
13.050000
  30
0.000000
  11
0.250000
  21
13.050000
  31
0.000000
  0
LINE
  8
Standard
  62
5
  10
0.900000
  20
13.050000
  30
0.000000
  11
1.000000
  21
13.050000
  31
0.000000
  0
LINE
  8
Standard
  62
5
  10
0.650000
  20
13.400000
  30
0.000000
  11
0.650000
  21
13.100000
  31
0.000000
  0
LINE
  8
Standard
  62
5
  10
0.650000
  20
13.300000
  30
0.000000
  11
0.900000
  21
13.450000
  31
0.000000
  0
LINE
  8
Standard
  62
5
  10
0.650000
  20
13.200000
  30
0.000000
  11
0.750000
  21
13.140000
  31
0.000000
  0
LINE
  8
Standard
  62
5
  10
0.850000
  20
13.080000
  30
0.000000
  11
0.900000
  21
13.050000
  31
0.000000
  0
POLYLINE
  8
Standard
  62
5
  66
1
  70
0
  0
VERTEX
  8
Standard
  62
5
  10
0.250000
  20
14.125000
  30
0.000000
  0
VERTEX
  8
Standard
  62
5
  10
0.375000
  20
14.375000
  30
0.000000
  0
SEQEND
  8
Standard
  62
5
  0
POLYLINE
  8
Standard
  62
5
  66
1
  70
0
  0
VERTEX
  8
Standard
  62
5
  10
0.375000
  20
14.375000
  30
0.000000
  0
VERTEX
  8
Standard
  62
5
  10
0.125000
  20
14.375000
  30
0.000000
  0
SEQEND
  8
Standard
  62
5
  0
POLYLINE
  8
Standard
  62
5
  66
1
  70
0
  0
VERTEX
  8
Standard
  62
5
  10
0.125000
  20
14.375000
  30
0.000000
  0
VERTEX
  8
Standard
  62
5
  10
0.250000
  20
14.125000
  30
0.000000
  0
SEQEND
  8
Standard
  62
5
  0
POLYLINE
  8
Standard
  62
5
  66
1
  70
0
  0
VERTEX
  8
Standard
  62
5
  10
0.850000
  20
14.080000
  30
0.000000
  0
VERTEX
  8
Standard
  62
5
  10
0.719117
  20
14.088530
  30
0.000000
  0
SEQEND
  8
Standard
  62
5
  0
POLYLINE
  8
Standard
  62
5
  66
1
  70
0
  0
VERTEX
  8
Standard
  62
5
  10
0.719117
  20
14.088530
  30
0.000000
  0
VERTEX
  8
Standard
  62
5
  10
0.780882
  20
14.191471
  30
0.000000
  0
SEQEND
  8
Standard
  62
5
  0
POLYLINE
  8
Standard
  62
5
  66
1
  70
0
  0
VERTEX
  8
Standard
  62
5
  10
0.780882
  20
14.191471
  30
0.000000
  0
VERTEX
  8
Standard
  62
5
  10
0.850000
  20
14.080000
  30
0.000000
  0
SEQEND
  8
Standard
  62
5
  0
POLYLINE
  8
Standard
  62
5
  66
1
  70
1
  0
VERTEX
  8
Standard
  62
5
  10
0.000000
  20
14.000000
  30
0.000000
  0
VERTEX
  8
Standard
  62
5
  10
0.000000
  20
14.500000
  30
0.000000
  0
VERTEX
  8
Standard
  62
5
  10
1.000000
  20
14.500000
  30
0.000000
  0
VERTEX
  8
Standard
  62
5
  10
1.000000
  20
14.000000
  30
0.000000
  0
SEQEND
  8
Standard
  62
5
  0
LINE
  8
Standard
  62
5
  10
0.375000
  20
14.125000
  30
0.000000
  11
0.125000
  21
14.125000
  31
0.000000
  0
LINE
  8
Standard
  62
5
  10
0.250000
  20
14.125000
  30
0.000000
  11
0.250000
  21
14.050000
  31
0.000000
  0
LINE
  8
Standard
  62
5
  10
0.250000
  20
14.450000
  30
0.000000
  11
0.250000
  21
14.375000
  31
0.000000
  0
LINE
  8
Standard
  62
5
  10
0.000000
  20
14.450000
  30
0.000000
  11
0.250000
  21
14.450000
  31
0.000000
  0
LINE
  8
Standard
  62
5
  10
0.900000
  20
14.450000
  30
0.000000
  11
1.000000
  21
14.450000
  31
0.000000
  0
LINE
  8
Standard
  62
5
  10
0.000000
  20
14.050000
  30
0.000000
  11
0.250000
  21
14.050000
  31
0.000000
  0
LINE
  8
Standard
  62
5
  10
0.900000
  20
14.050000
  30
0.000000
  11
1.000000
  21
14.050000
  31
0.000000
  0
LINE
  8
Standard
  62
5
  10
0.650000
  20
14.400000
  30
0.000000
  11
0.650000
  21
14.100000
  31
0.000000
  0
LINE
  8
Standard
  62
5
  10
0.650000
  20
14.300000
  30
0.000000
  11
0.900000
  21
14.450000
  31
0.000000
  0
LINE
  8
Standard
  62
5
  10
0.650000
  20
14.200000
  30
0.000000
  11
0.750000
  21
14.140000
  31
0.000000
  0
LINE
  8
Standard
  62
5
  10
0.850000
  20
14.080000
  30
0.000000
  11
0.900000
  21
14.050000
  31
0.000000
  0
POLYLINE
  8
Standard
  62
5
  66
1
  70
0
  0
VERTEX
  8
Standard
  62
5
  10
0.750000
  20
-1.875000
  30
0.000000
  0
VERTEX
  8
Standard
  62
5
  10
0.625000
  20
-1.625000
  30
0.000000
  0
SEQEND
  8
Standard
  62
5
  0
POLYLINE
  8
Standard
  62
5
  66
1
  70
0
  0
VERTEX
  8
Standard
  62
5
  10
0.625000
  20
-1.625000
  30
0.000000
  0
VERTEX
  8
Standard
  62
5
  10
0.875000
  20
-1.625000
  30
0.000000
  0
SEQEND
  8
Standard
  62
5
  0
POLYLINE
  8
Standard
  62
5
  66
1
  70
0
  0
VERTEX
  8
Standard
  62
5
  10
0.875000
  20
-1.625000
  30
0.000000
  0
VERTEX
  8
Standard
  62
5
  10
0.750000
  20
-1.875000
  30
0.000000
  0
SEQEND
  8
Standard
  62
5
  0
POLYLINE
  8
Standard
  62
5
  66
1
  70
0
  0
VERTEX
  8
Standard
  62
5
  10
0.150000
  20
-1.920000
  30
0.000000
  0
VERTEX
  8
Standard
  62
5
  10
0.280882
  20
-1.911471
  30
0.000000
  0
SEQEND
  8
Standard
  62
5
  0
POLYLINE
  8
Standard
  62
5
  66
1
  70
0
  0
VERTEX
  8
Standard
  62
5
  10
0.280882
  20
-1.911471
  30
0.000000
  0
VERTEX
  8
Standard
  62
5
  10
0.219118
  20
-1.808529
  30
0.000000
  0
SEQEND
  8
Standard
  62
5
  0
POLYLINE
  8
Standard
  62
5
  66
1
  70
0
  0
VERTEX
  8
Standard
  62
5
  10
0.219118
  20
-1.808529
  30
0.000000
  0
VERTEX
  8
Standard
  62
5
  10
0.150000
  20
-1.920000
  30
0.000000
  0
SEQEND
  8
Standard
  62
5
  0
POLYLINE
  8
Standard
  62
5
  66
1
  70
1
  0
VERTEX
  8
Standard
  62
5
  10
1.000000
  20
-2.000000
  30
0.000000
  0
VERTEX
  8
Standard
  62
5
  10
1.000000
  20
-1.500000
  30
0.000000
  0
VERTEX
  8
Standard
  62
5
  10
0.000000
  20
-1.500000
  30
0.000000
  0
VERTEX
  8
Standard
  62
5
  10
0.000000
  20
-2.000000
  30
0.000000
  0
SEQEND
  8
Standard
  62
5
  0
LINE
  8
Standard
  62
5
  10
0.625000
  20
-1.875000
  30
0.000000
  11
0.875000
  21
-1.875000
  31
0.000000
  0
LINE
  8
Standard
  62
5
  10
0.750000
  20
-1.875000
  30
0.000000
  11
0.750000
  21
-1.950000
  31
0.000000
  0
LINE
  8
Standard
  62
5
  10
0.750000
  20
-1.550000
  30
0.000000
  11
0.750000
  21
-1.625000
  31
0.000000
  0
LINE
  8
Standard
  62
5
  10
1.000000
  20
-1.550000
  30
0.000000
  11
0.750000
  21
-1.550000
  31
0.000000
  0
LINE
  8
Standard
  62
5
  10
0.100000
  20
-1.550000
  30
0.000000
  11
0.000000
  21
-1.550000
  31
0.000000
  0
LINE
  8
Standard
  62
5
  10
1.000000
  20
-1.950000
  30
0.000000
  11
0.750000
  21
-1.950000
  31
0.000000
  0
LINE
  8
Standard
  62
5
  10
0.100000
  20
-1.950000
  30
0.000000
  11
0.000000
  21
-1.950000
  31
0.000000
  0
LINE
  8
Standard
  62
5
  10
0.350000
  20
-1.600000
  30
0.000000
  11
0.350000
  21
-1.900000
  31
0.000000
  0
LINE
  8
Standard
  62
5
  10
0.350000
  20
-1.700000
  30
0.000000
  11
0.100000
  21
-1.550000
  31
0.000000
  0
LINE
  8
Standard
  62
5
  10
0.350000
  20
-1.800000
  30
0.000000
  11
0.250000
  21
-1.860000
  31
0.000000
  0
LINE
  8
Standard
  62
5
  10
0.150000
  20
-1.920000
  30
0.000000
  11
0.100000
  21
-1.950000
  31
0.000000
  0
POLYLINE
  8
Standard
  62
5
  66
1
  70
0
  0
VERTEX
  8
Standard
  62
5
  10
0.750000
  20
-0.875000
  30
0.000000
  0
VERTEX
  8
Standard
  62
5
  10
0.625000
  20
-0.625000
  30
0.000000
  0
SEQEND
  8
Standard
  62
5
  0
POLYLINE
  8
Standard
  62
5
  66
1
  70
0
  0
VERTEX
  8
Standard
  62
5
  10
0.625000
  20
-0.625000
  30
0.000000
  0
VERTEX
  8
Standard
  62
5
  10
0.875000
  20
-0.625000
  30
0.000000
  0
SEQEND
  8
Standard
  62
5
  0
POLYLINE
  8
Standard
  62
5
  66
1
  70
0
  0
VERTEX
  8
Standard
  62
5
  10
0.875000
  20
-0.625000
  30
0.000000
  0
VERTEX
  8
Standard
  62
5
  10
0.750000
  20
-0.875000
  30
0.000000
  0
SEQEND
  8
Standard
  62
5
  0
POLYLINE
  8
Standard
  62
5
  66
1
  70
0
  0
VERTEX
  8
Standard
  62
5
  10
0.150000
  20
-0.920000
  30
0.000000
  0
VERTEX
  8
Standard
  62
5
  10
0.280882
  20
-0.911471
  30
0.000000
  0
SEQEND
  8
Standard
  62
5
  0
POLYLINE
  8
Standard
  62
5
  66
1
  70
0
  0
VERTEX
  8
Standard
  62
5
  10
0.280882
  20
-0.911471
  30
0.000000
  0
VERTEX
  8
Standard
  62
5
  10
0.219118
  20
-0.808529
  30
0.000000
  0
SEQEND
  8
Standard
  62
5
  0
POLYLINE
  8
Standard
  62
5
  66
1
  70
0
  0
VERTEX
  8
Standard
  62
5
  10
0.219118
  20
-0.808529
  30
0.000000
  0
VERTEX
  8
Standard
  62
5
  10
0.150000
  20
-0.920000
  30
0.000000
  0
SEQEND
  8
Standard
  62
5
  0
POLYLINE
  8
Standard
  62
5
  66
1
  70
1
  0
VERTEX
  8
Standard
  62
5
  10
1.000000
  20
-1.000000
  30
0.000000
  0
VERTEX
  8
Standard
  62
5
  10
1.000000
  20
-0.500000
  30
0.000000
  0
VERTEX
  8
Standard
  62
5
  10
0.000000
  20
-0.500000
  30
0.000000
  0
VERTEX
  8
Standard
  62
5
  10
0.000000
  20
-1.000000
  30
0.000000
  0
SEQEND
  8
Standard
  62
5
  0
LINE
  8
Standard
  62
5
  10
0.625000
  20
-0.875000
  30
0.000000
  11
0.875000
  21
-0.875000
  31
0.000000
  0
LINE
  8
Standard
  62
5
  10
0.750000
  20
-0.875000
  30
0.000000
  11
0.750000
  21
-0.950000
  31
0.000000
  0
LINE
  8
Standard
  62
5
  10
0.750000
  20
-0.550000
  30
0.000000
  11
0.750000
  21
-0.625000
  31
0.000000
  0
LINE
  8
Standard
  62
5
  10
1.000000
  20
-0.550000
  30
0.000000
  11
0.750000
  21
-0.550000
  31
0.000000
  0
LINE
  8
Standard
  62
5
  10
0.100000
  20
-0.550000
  30
0.000000
  11
0.000000
  21
-0.550000
  31
0.000000
  0
LINE
  8
Standard
  62
5
  10
1.000000
  20
-0.950000
  30
0.000000
  11
0.750000
  21
-0.950000
  31
0.000000
  0
LINE
  8
Standard
  62
5
  10
0.100000
  20
-0.950000
  30
0.000000
  11
0.000000
  21
-0.950000
  31
0.000000
  0
LINE
  8
Standard
  62
5
  10
0.350000
  20
-0.600000
  30
0.000000
  11
0.350000
  21
-0.900000
  31
0.000000
  0
LINE
  8
Standard
  62
5
  10
0.350000
  20
-0.700000
  30
0.000000
  11
0.100000
  21
-0.550000
  31
0.000000
  0
LINE
  8
Standard
  62
5
  10
0.350000
  20
-0.800000
  30
0.000000
  11
0.250000
  21
-0.860000
  31
0.000000
  0
LINE
  8
Standard
  62
5
  10
0.150000
  20
-0.920000
  30
0.000000
  11
0.100000
  21
-0.950000
  31
0.000000
  0
POLYLINE
  8
Standard
  62
5
  66
1
  70
0
  0
VERTEX
  8
Standard
  62
5
  10
0.750000
  20
0.125000
  30
0.000000
  0
VERTEX
  8
Standard
  62
5
  10
0.625000
  20
0.375000
  30
0.000000
  0
SEQEND
  8
Standard
  62
5
  0
POLYLINE
  8
Standard
  62
5
  66
1
  70
0
  0
VERTEX
  8
Standard
  62
5
  10
0.625000
  20
0.375000
  30
0.000000
  0
VERTEX
  8
Standard
  62
5
  10
0.875000
  20
0.375000
  30
0.000000
  0
SEQEND
  8
Standard
  62
5
  0
POLYLINE
  8
Standard
  62
5
  66
1
  70
0
  0
VERTEX
  8
Standard
  62
5
  10
0.875000
  20
0.375000
  30
0.000000
  0
VERTEX
  8
Standard
  62
5
  10
0.750000
  20
0.125000
  30
0.000000
  0
SEQEND
  8
Standard
  62
5
  0
POLYLINE
  8
Standard
  62
5
  66
1
  70
0
  0
VERTEX
  8
Standard
  62
5
  10
0.150000
  20
0.080000
  30
0.000000
  0
VERTEX
  8
Standard
  62
5
  10
0.280882
  20
0.088529
  30
0.000000
  0
SEQEND
  8
Standard
  62
5
  0
POLYLINE
  8
Standard
  62
5
  66
1
  70
0
  0
VERTEX
  8
Standard
  62
5
  10
0.280882
  20
0.088529
  30
0.000000
  0
VERTEX
  8
Standard
  62
5
  10
0.219118
  20
0.191471
  30
0.000000
  0
SEQEND
  8
Standard
  62
5
  0
POLYLINE
  8
Standard
  62
5
  66
1
  70
0
  0
VERTEX
  8
Standard
  62
5
  10
0.219118
  20
0.191471
  30
0.000000
  0
VERTEX
  8
Standard
  62
5
  10
0.150000
  20
0.080000
  30
0.000000
  0
SEQEND
  8
Standard
  62
5
  0
POLYLINE
  8
Standard
  62
5
  66
1
  70
1
  0
VERTEX
  8
Standard
  62
5
  10
1.000000
  20
0.000000
  30
0.000000
  0
VERTEX
  8
Standard
  62
5
  10
1.000000
  20
0.500000
  30
0.000000
  0
VERTEX
  8
Standard
  62
5
  10
0.000000
  20
0.500000
  30
0.000000
  0
VERTEX
  8
Standard
  62
5
  10
0.000000
  20
0.000000
  30
0.000000
  0
SEQEND
  8
Standard
  62
5
  0
LINE
  8
Standard
  62
5
  10
0.625000
  20
0.125000
  30
0.000000
  11
0.875000
  21
0.125000
  31
0.000000
  0
LINE
  8
Standard
  62
5
  10
0.750000
  20
0.125000
  30
0.000000
  11
0.750000
  21
0.050000
  31
0.000000
  0
LINE
  8
Standard
  62
5
  10
0.750000
  20
0.450000
  30
0.000000
  11
0.750000
  21
0.375000
  31
0.000000
  0
LINE
  8
Standard
  62
5
  10
1.000000
  20
0.450000
  30
0.000000
  11
0.750000
  21
0.450000
  31
0.000000
  0
LINE
  8
Standard
  62
5
  10
0.100000
  20
0.450000
  30
0.000000
  11
0.000000
  21
0.450000
  31
0.000000
  0
LINE
  8
Standard
  62
5
  10
1.000000
  20
0.050000
  30
0.000000
  11
0.750000
  21
0.050000
  31
0.000000
  0
LINE
  8
Standard
  62
5
  10
0.100000
  20
0.050000
  30
0.000000
  11
0.000000
  21
0.050000
  31
0.000000
  0
LINE
  8
Standard
  62
5
  10
0.350000
  20
0.400000
  30
0.000000
  11
0.350000
  21
0.100000
  31
0.000000
  0
LINE
  8
Standard
  62
5
  10
0.350000
  20
0.300000
  30
0.000000
  11
0.100000
  21
0.450000
  31
0.000000
  0
LINE
  8
Standard
  62
5
  10
0.350000
  20
0.200000
  30
0.000000
  11
0.250000
  21
0.140000
  31
0.000000
  0
LINE
  8
Standard
  62
5
  10
0.150000
  20
0.080000
  30
0.000000
  11
0.100000
  21
0.050000
  31
0.000000
  0
POLYLINE
  8
Standard
  62
5
  66
1
  70
0
  0
VERTEX
  8
Standard
  62
5
  10
0.750000
  20
1.125000
  30
0.000000
  0
VERTEX
  8
Standard
  62
5
  10
0.625000
  20
1.375000
  30
0.000000
  0
SEQEND
  8
Standard
  62
5
  0
POLYLINE
  8
Standard
  62
5
  66
1
  70
0
  0
VERTEX
  8
Standard
  62
5
  10
0.625000
  20
1.375000
  30
0.000000
  0
VERTEX
  8
Standard
  62
5
  10
0.875000
  20
1.375000
  30
0.000000
  0
SEQEND
  8
Standard
  62
5
  0
POLYLINE
  8
Standard
  62
5
  66
1
  70
0
  0
VERTEX
  8
Standard
  62
5
  10
0.875000
  20
1.375000
  30
0.000000
  0
VERTEX
  8
Standard
  62
5
  10
0.750000
  20
1.125000
  30
0.000000
  0
SEQEND
  8
Standard
  62
5
  0
POLYLINE
  8
Standard
  62
5
  66
1
  70
0
  0
VERTEX
  8
Standard
  62
5
  10
0.150000
  20
1.080000
  30
0.000000
  0
VERTEX
  8
Standard
  62
5
  10
0.280882
  20
1.088529
  30
0.000000
  0
SEQEND
  8
Standard
  62
5
  0
POLYLINE
  8
Standard
  62
5
  66
1
  70
0
  0
VERTEX
  8
Standard
  62
5
  10
0.280882
  20
1.088529
  30
0.000000
  0
VERTEX
  8
Standard
  62
5
  10
0.219118
  20
1.191471
  30
0.000000
  0
SEQEND
  8
Standard
  62
5
  0
POLYLINE
  8
Standard
  62
5
  66
1
  70
0
  0
VERTEX
  8
Standard
  62
5
  10
0.219118
  20
1.191471
  30
0.000000
  0
VERTEX
  8
Standard
  62
5
  10
0.150000
  20
1.080000
  30
0.000000
  0
SEQEND
  8
Standard
  62
5
  0
POLYLINE
  8
Standard
  62
5
  66
1
  70
1
  0
VERTEX
  8
Standard
  62
5
  10
1.000000
  20
1.000000
  30
0.000000
  0
VERTEX
  8
Standard
  62
5
  10
1.000000
  20
1.500000
  30
0.000000
  0
VERTEX
  8
Standard
  62
5
  10
0.000000
  20
1.500000
  30
0.000000
  0
VERTEX
  8
Standard
  62
5
  10
0.000000
  20
1.000000
  30
0.000000
  0
SEQEND
  8
Standard
  62
5
  0
LINE
  8
Standard
  62
5
  10
0.625000
  20
1.125000
  30
0.000000
  11
0.875000
  21
1.125000
  31
0.000000
  0
LINE
  8
Standard
  62
5
  10
0.750000
  20
1.125000
  30
0.000000
  11
0.750000
  21
1.050000
  31
0.000000
  0
LINE
  8
Standard
  62
5
  10
0.750000
  20
1.450000
  30
0.000000
  11
0.750000
  21
1.375000
  31
0.000000
  0
LINE
  8
Standard
  62
5
  10
1.000000
  20
1.450000
  30
0.000000
  11
0.750000
  21
1.450000
  31
0.000000
  0
LINE
  8
Standard
  62
5
  10
0.100000
  20
1.450000
  30
0.000000
  11
0.000000
  21
1.450000
  31
0.000000
  0
LINE
  8
Standard
  62
5
  10
1.000000
  20
1.050000
  30
0.000000
  11
0.750000
  21
1.050000
  31
0.000000
  0
LINE
  8
Standard
  62
5
  10
0.100000
  20
1.050000
  30
0.000000
  11
0.000000
  21
1.050000
  31
0.000000
  0
LINE
  8
Standard
  62
5
  10
0.350000
  20
1.400000
  30
0.000000
  11
0.350000
  21
1.100000
  31
0.000000
  0
LINE
  8
Standard
  62
5
  10
0.350000
  20
1.300000
  30
0.000000
  11
0.100000
  21
1.450000
  31
0.000000
  0
LINE
  8
Standard
  62
5
  10
0.350000
  20
1.200000
  30
0.000000
  11
0.250000
  21
1.140000
  31
0.000000
  0
LINE
  8
Standard
  62
5
  10
0.150000
  20
1.080000
  30
0.000000
  11
0.100000
  21
1.050000
  31
0.000000
  0
POLYLINE
  8
Standard
  62
5
  66
1
  70
0
  0
VERTEX
  8
Standard
  62
5
  10
0.750000
  20
2.125000
  30
0.000000
  0
VERTEX
  8
Standard
  62
5
  10
0.625000
  20
2.375000
  30
0.000000
  0
SEQEND
  8
Standard
  62
5
  0
POLYLINE
  8
Standard
  62
5
  66
1
  70
0
  0
VERTEX
  8
Standard
  62
5
  10
0.625000
  20
2.375000
  30
0.000000
  0
VERTEX
  8
Standard
  62
5
  10
0.875000
  20
2.375000
  30
0.000000
  0
SEQEND
  8
Standard
  62
5
  0
POLYLINE
  8
Standard
  62
5
  66
1
  70
0
  0
VERTEX
  8
Standard
  62
5
  10
0.875000
  20
2.375000
  30
0.000000
  0
VERTEX
  8
Standard
  62
5
  10
0.750000
  20
2.125000
  30
0.000000
  0
SEQEND
  8
Standard
  62
5
  0
POLYLINE
  8
Standard
  62
5
  66
1
  70
0
  0
VERTEX
  8
Standard
  62
5
  10
0.150000
  20
2.080000
  30
0.000000
  0
VERTEX
  8
Standard
  62
5
  10
0.280882
  20
2.088530
  30
0.000000
  0
SEQEND
  8
Standard
  62
5
  0
POLYLINE
  8
Standard
  62
5
  66
1
  70
0
  0
VERTEX
  8
Standard
  62
5
  10
0.280882
  20
2.088530
  30
0.000000
  0
VERTEX
  8
Standard
  62
5
  10
0.219118
  20
2.191471
  30
0.000000
  0
SEQEND
  8
Standard
  62
5
  0
POLYLINE
  8
Standard
  62
5
  66
1
  70
0
  0
VERTEX
  8
Standard
  62
5
  10
0.219118
  20
2.191471
  30
0.000000
  0
VERTEX
  8
Standard
  62
5
  10
0.150000
  20
2.080000
  30
0.000000
  0
SEQEND
  8
Standard
  62
5
  0
POLYLINE
  8
Standard
  62
5
  66
1
  70
1
  0
VERTEX
  8
Standard
  62
5
  10
1.000000
  20
2.000000
  30
0.000000
  0
VERTEX
  8
Standard
  62
5
  10
1.000000
  20
2.500000
  30
0.000000
  0
VERTEX
  8
Standard
  62
5
  10
0.000000
  20
2.500000
  30
0.000000
  0
VERTEX
  8
Standard
  62
5
  10
0.000000
  20
2.000000
  30
0.000000
  0
SEQEND
  8
Standard
  62
5
  0
LINE
  8
Standard
  62
5
  10
0.625000
  20
2.125000
  30
0.000000
  11
0.875000
  21
2.125000
  31
0.000000
  0
LINE
  8
Standard
  62
5
  10
0.750000
  20
2.125000
  30
0.000000
  11
0.750000
  21
2.050000
  31
0.000000
  0
LINE
  8
Standard
  62
5
  10
0.750000
  20
2.450000
  30
0.000000
  11
0.750000
  21
2.375000
  31
0.000000
  0
LINE
  8
Standard
  62
5
  10
1.000000
  20
2.450000
  30
0.000000
  11
0.750000
  21
2.450000
  31
0.000000
  0
LINE
  8
Standard
  62
5
  10
0.100000
  20
2.450000
  30
0.000000
  11
0.000000
  21
2.450000
  31
0.000000
  0
LINE
  8
Standard
  62
5
  10
1.000000
  20
2.050000
  30
0.000000
  11
0.750000
  21
2.050000
  31
0.000000
  0
LINE
  8
Standard
  62
5
  10
0.100000
  20
2.050000
  30
0.000000
  11
0.000000
  21
2.050000
  31
0.000000
  0
LINE
  8
Standard
  62
5
  10
0.350000
  20
2.400000
  30
0.000000
  11
0.350000
  21
2.100000
  31
0.000000
  0
LINE
  8
Standard
  62
5
  10
0.350000
  20
2.300000
  30
0.000000
  11
0.100000
  21
2.450000
  31
0.000000
  0
LINE
  8
Standard
  62
5
  10
0.350000
  20
2.200000
  30
0.000000
  11
0.250000
  21
2.140000
  31
0.000000
  0
LINE
  8
Standard
  62
5
  10
0.150000
  20
2.080000
  30
0.000000
  11
0.100000
  21
2.050000
  31
0.000000
  0
LINE
  8
Standard
  62
0
  10
0.000000
  20
2.050000
  30
0.000000
  11
-0.500000
  21
2.050000
  31
0.000000
  0
LINE
  8
Standard
  62
0
  10
0.000000
  20
1.050000
  30
0.000000
  11
-0.500000
  21
1.050000
  31
0.000000
  0
LINE
  8
Standard
  62
0
  10
0.000000
  20
0.050000
  30
0.000000
  11
-0.500000
  21
0.050000
  31
0.000000
  0
LINE
  8
Standard
  62
0
  10
0.000000
  20
-0.950000
  30
0.000000
  11
-0.500000
  21
-0.950000
  31
0.000000
  0
CIRCLE
  8
Standard
  62
0
  10
4.000000
  20
-2.550000
  30
0.000000
  40
0.050000
  0
LINE
  8
Standard
  62
0
  10
1.000000
  20
2.050000
  30
0.000000
  11
1.600000
  21
2.050000
  31
0.000000
  0
LINE
  8
Standard
  62
0
  10
1.000000
  20
1.050000
  30
0.000000
  11
1.600000
  21
1.050000
  31
0.000000
  0
LINE
  8
Standard
  62
0
  10
1.000000
  20
0.050000
  30
0.000000
  11
1.600000
  21
0.050000
  31
0.000000
  0
LINE
  8
Standard
  62
0
  10
1.000000
  20
-0.950000
  30
0.000000
  11
1.600000
  21
-0.950000
  31
0.000000
  0
LINE
  8
Standard
  62
0
  10
1.000000
  20
-1.950000
  30
0.000000
  11
1.600000
  21
-1.950000
  31
0.000000
  0
TEXT
  8
Standard
  62
0
  10
-15.224966
  20
9.321339
  30
0.000000
  40
0.180000
  1
D0
  7
STANDARD
  0
TEXT
  8
Standard
  62
0
  10
-15.224966
  20
9.021338
  30
0.000000
  40
0.180000
  1
D1
  7
STANDARD
  0
TEXT
  8
Standard
  62
0
  10
-15.224966
  20
8.721338
  30
0.000000
  40
0.180000
  1
D2
  7
STANDARD
  0
TEXT
  8
Standard
  62
0
  10
-15.224966
  20
8.421339
  30
0.000000
  40
0.180000
  1
D3
  7
STANDARD
  0
TEXT
  8
Standard
  62
0
  10
-15.224966
  20
8.121338
  30
0.000000
  40
0.180000
  1
D4
  7
STANDARD
  0
TEXT
  8
Standard
  62
0
  10
-15.224966
  20
7.821338
  30
0.000000
  40
0.180000
  1
D5
  7
STANDARD
  0
TEXT
  8
Standard
  62
0
  10
-15.224966
  20
7.521338
  30
0.000000
  40
0.180000
  1
D6
  7
STANDARD
  0
TEXT
  8
Standard
  62
0
  10
-15.224966
  20
7.221338
  30
0.000000
  40
0.180000
  1
D7
  7
STANDARD
  0
TEXT
  8
Standard
  62
0
  10
-15.224966
  20
11.271338
  30
0.000000
  40
0.180000
  1
C0
  7
STANDARD
  0
TEXT
  8
Standard
  62
0
  10
-15.224966
  20
11.871338
  30
0.000000
  40
0.180000
  1
C1
  7
STANDARD
  0
TEXT
  8
Standard
  62
0
  10
-15.224966
  20
12.471338
  30
0.000000
  40
0.180000
  1
C2
  7
STANDARD
  0
TEXT
  8
Standard
  62
0
  10
-15.224966
  20
13.071337
  30
0.000000
  40
0.180000
  1
C3
  7
STANDARD
  0
TEXT
  8
Standard
  62
0
  10
-15.224966
  20
-1.628662
  30
0.000000
  40
0.180000
  1
S3
  7
STANDARD
  0
TEXT
  8
Standard
  62
0
  10
-15.224966
  20
-0.628662
  30
0.000000
  40
0.180000
  1
S4
  7
STANDARD
  0
TEXT
  8
Standard
  62
0
  10
-15.224965
  20
0.371338
  30
0.000000
  40
0.180000
  1
S5
  7
STANDARD
  0
TEXT
  8
Standard
  62
0
  10
-15.224965
  20
1.371338
  30
0.000000
  40
0.180000
  1
S6
  7
STANDARD
  0
TEXT
  8
Standard
  62
0
  10
-15.224965
  20
2.371338
  30
0.000000
  40
0.180000
  1
S7
  7
STANDARD
  0
LINE
  8
Standard
  62
0
  10
-7.300000
  20
13.450000
  30
0.000000
  11
-6.000000
  21
13.450000
  31
0.000000
  0
LINE
  8
Standard
  62
0
  10
-7.300000
  20
12.849999
  30
0.000000
  11
-6.000000
  21
12.849999
  31
0.000000
  0
LINE
  8
Standard
  62
0
  10
-7.300000
  20
12.249999
  30
0.000000
  11
-6.000000
  21
12.249999
  31
0.000000
  0
LINE
  8
Standard
  62
0
  10
-7.300000
  20
11.650001
  30
0.000000
  11
-6.000000
  21
11.650001
  31
0.000000
  0
LINE
  8
Standard
  62
0
  10
-7.300000
  20
11.050000
  30
0.000000
  11
-6.000000
  21
11.050000
  31
0.000000
  0
LINE
  8
Standard
  62
0
  10
-7.300000
  20
7.000000
  30
0.000000
  11
-6.000000
  21
7.000000
  31
0.000000
  0
LINE
  8
Standard
  62
0
  10
-6.750000
  20
14.650000
  30
0.000000
  11
-6.750000
  21
14.049999
  31
0.000000
  0
LINE
  8
Standard
  62
0
  10
-6.950000
  20
14.650000
  30
0.000000
  11
-6.950000
  21
14.049999
  31
0.000000
  0
LINE
  8
Standard
  62
0
  10
-6.400001
  20
14.349999
  30
0.000000
  11
-6.750000
  21
14.349999
  31
0.000000
  0
LINE
  8
Standard
  62
0
  10
-6.750000
  20
10.600000
  30
0.000000
  11
-6.750000
  21
10.000000
  31
0.000000
  0
LINE
  8
Standard
  62
0
  10
-6.950000
  20
10.600000
  30
0.000000
  11
-6.950000
  21
10.000000
  31
0.000000
  0
LINE
  8
Standard
  62
0
  10
-6.400001
  20
10.300000
  30
0.000000
  11
-6.750000
  21
10.300000
  31
0.000000
  0
LINE
  8
Standard
  62
0
  10
-6.950000
  20
10.300000
  30
0.000000
  11
-7.300000
  21
10.300000
  31
0.000000
  0
TEXT
  8
Standard
  62
0
  10
-6.251710
  20
9.888721
  30
0.000000
  40
0.180000
  1
1
  7
STANDARD
  0
TEXT
  8
Standard
  62
0
  10
-6.251710
  20
13.891980
  30
0.000000
  40
0.180000
  1
1
  7
STANDARD
  0
LINE
  8
Standard
  62
0
  10
-14.500000
  20
-4.600000
  30
0.000000
  11
-6.000000
  21
-4.600000
  31
0.000000
  0
TEXT
  8
Standard
  62
0
  10
-6.203913
  20
-4.128238
  30
0.000000
  40
0.180000
  1
1
  7
STANDARD
  0
LINE
  8
Standard
  62
0
  10
-4.099999
  20
-4.300000
  30
0.000000
  11
-4.500000
  21
-4.300000
  31
0.000000
  0
LINE
  8
Standard
  62
0
  10
-4.099999
  20
-4.599999
  30
0.000000
  11
-4.500000
  21
-4.599999
  31
0.000000
  0
LINE
  8
Standard
  62
0
  10
-4.099999
  20
-4.900000
  30
0.000000
  11
-4.500000
  21
-4.900000
  31
0.000000
  0
LINE
  8
Standard
  62
0
  10
-4.099999
  20
-5.200000
  30
0.000000
  11
-4.500000
  21
-5.200000
  31
0.000000
  0
LINE
  8
Standard
  62
0
  10
-4.099999
  20
-5.500000
  30
0.000000
  11
-4.500000
  21
-5.500000
  31
0.000000
  0
LINE
  8
Standard
  62
0
  10
-4.099999
  20
-5.800000
  30
0.000000
  11
-4.500000
  21
-5.800000
  31
0.000000
  0
LINE
  8
Standard
  62
0
  10
-4.099999
  20
-6.100000
  30
0.000000
  11
-4.500000
  21
-6.100000
  31
0.000000
  0
LINE
  8
Standard
  62
0
  10
-6.400000
  20
-4.900000
  30
0.000000
  11
-6.000000
  21
-4.900000
  31
0.000000
  0
LINE
  8
Standard
  62
0
  10
-6.400000
  20
-5.200000
  30
0.000000
  11
-6.000000
  21
-5.200000
  31
0.000000
  0
LINE
  8
Standard
  62
0
  10
-6.400000
  20
-6.099999
  30
0.000000
  11
-6.000000
  21
-6.099999
  31
0.000000
  0
POLYLINE
  8
Standard
  62
5
  66
1
  70
1
  0
VERTEX
  8
Standard
  62
5
  10
-6.000000
  20
-6.250000
  30
0.000000
  0
VERTEX
  8
Standard
  62
5
  10
-6.000000
  20
-4.150000
  30
0.000000
  0
VERTEX
  8
Standard
  62
5
  10
-4.500000
  20
-4.150000
  30
0.000000
  0
VERTEX
  8
Standard
  62
5
  10
-4.500000
  20
-6.250000
  30
0.000000
  0
SEQEND
  8
Standard
  62
5
  0
TEXT
  8
Standard
  62
0
  10
-15.224966
  20
-4.378661
  30
0.000000
  40
0.180000
  1
5V +
  7
STANDARD
  0
TEXT
  8
Standard
  62
0
  10
-15.224966
  20
-4.678661
  30
0.000000
  40
0.180000
  1
5V -
  7
STANDARD
  0
LINE
  8
Standard
  62
0
  10
2.400000
  20
-5.300001
  30
0.000000
  11
2.200000
  21
-5.199999
  31
0.000000
  0
LINE
  8
Standard
  62
0
  10
2.200000
  20
-5.199999
  30
0.000000
  11
2.400000
  21
-5.099999
  31
0.000000
  0
LINE
  8
Standard
  62
0
  10
2.400000
  20
-5.099999
  30
0.000000
  11
2.200000
  21
-5.000001
  31
0.000000
  0
LINE
  8
Standard
  62
0
  10
2.200000
  20
-5.000001
  30
0.000000
  11
2.400000
  21
-4.899999
  31
0.000000
  0
LINE
  8
Standard
  62
0
  10
2.400000
  20
-4.899999
  30
0.000000
  11
2.200000
  21
-4.800000
  31
0.000000
  0
LINE
  8
Standard
  62
0
  10
2.300000
  20
-5.350000
  30
0.000000
  11
2.400000
  21
-5.300001
  31
0.000000
  0
LINE
  8
Standard
  62
0
  10
2.200000
  20
-4.800000
  30
0.000000
  11
2.300000
  21
-4.750001
  31
0.000000
  0
LINE
  8
Standard
  62
0
  10
2.300000
  20
-4.750001
  30
0.000000
  11
2.300000
  21
-4.550000
  31
0.000000
  0
LINE
  8
Standard
  62
0
  10
2.599999
  20
-5.300001
  30
0.000000
  11
2.400000
  21
-5.199999
  31
0.000000
  0
LINE
  8
Standard
  62
0
  10
2.400000
  20
-5.199999
  30
0.000000
  11
2.599999
  21
-5.099999
  31
0.000000
  0
LINE
  8
Standard
  62
0
  10
2.599999
  20
-5.099999
  30
0.000000
  11
2.400000
  21
-5.000001
  31
0.000000
  0
LINE
  8
Standard
  62
0
  10
2.400000
  20
-5.000001
  30
0.000000
  11
2.599999
  21
-4.899999
  31
0.000000
  0
LINE
  8
Standard
  62
0
  10
2.599999
  20
-4.899999
  30
0.000000
  11
2.400000
  21
-4.800000
  31
0.000000
  0
LINE
  8
Standard
  62
0
  10
2.500000
  20
-5.350000
  30
0.000000
  11
2.599999
  21
-5.300001
  31
0.000000
  0
LINE
  8
Standard
  62
0
  10
2.400000
  20
-4.800000
  30
0.000000
  11
2.500000
  21
-4.750001
  31
0.000000
  0
LINE
  8
Standard
  62
0
  10
2.500000
  20
-4.750001
  30
0.000000
  11
2.500000
  21
-4.550000
  31
0.000000
  0
LINE
  8
Standard
  62
0
  10
2.800000
  20
-5.300001
  30
0.000000
  11
2.600000
  21
-5.199999
  31
0.000000
  0
LINE
  8
Standard
  62
0
  10
2.600000
  20
-5.199999
  30
0.000000
  11
2.800000
  21
-5.099999
  31
0.000000
  0
LINE
  8
Standard
  62
0
  10
2.800000
  20
-5.099999
  30
0.000000
  11
2.600000
  21
-5.000001
  31
0.000000
  0
LINE
  8
Standard
  62
0
  10
2.600000
  20
-5.000001
  30
0.000000
  11
2.800000
  21
-4.899999
  31
0.000000
  0
LINE
  8
Standard
  62
0
  10
2.800000
  20
-4.899999
  30
0.000000
  11
2.600000
  21
-4.800000
  31
0.000000
  0
LINE
  8
Standard
  62
0
  10
2.700000
  20
-5.350000
  30
0.000000
  11
2.800000
  21
-5.300001
  31
0.000000
  0
LINE
  8
Standard
  62
0
  10
2.600000
  20
-4.800000
  30
0.000000
  11
2.700000
  21
-4.750001
  31
0.000000
  0
LINE
  8
Standard
  62
0
  10
2.700000
  20
-4.750001
  30
0.000000
  11
2.700000
  21
-4.550000
  31
0.000000
  0
LINE
  8
Standard
  62
0
  10
3.000000
  20
-5.300001
  30
0.000000
  11
2.800000
  21
-5.199999
  31
0.000000
  0
LINE
  8
Standard
  62
0
  10
2.800000
  20
-5.199999
  30
0.000000
  11
3.000000
  21
-5.099999
  31
0.000000
  0
LINE
  8
Standard
  62
0
  10
3.000000
  20
-5.099999
  30
0.000000
  11
2.800000
  21
-5.000001
  31
0.000000
  0
LINE
  8
Standard
  62
0
  10
2.800000
  20
-5.000001
  30
0.000000
  11
3.000000
  21
-4.899999
  31
0.000000
  0
LINE
  8
Standard
  62
0
  10
3.000000
  20
-4.899999
  30
0.000000
  11
2.800000
  21
-4.800000
  31
0.000000
  0
LINE
  8
Standard
  62
0
  10
2.900000
  20
-5.350000
  30
0.000000
  11
3.000000
  21
-5.300001
  31
0.000000
  0
LINE
  8
Standard
  62
0
  10
2.800000
  20
-4.800000
  30
0.000000
  11
2.900000
  21
-4.750001
  31
0.000000
  0
LINE
  8
Standard
  62
0
  10
2.900000
  20
-4.750001
  30
0.000000
  11
2.900000
  21
-4.550000
  31
0.000000
  0
LINE
  8
Standard
  62
0
  10
3.200000
  20
-5.300001
  30
0.000000
  11
3.000000
  21
-5.199999
  31
0.000000
  0
LINE
  8
Standard
  62
0
  10
3.000000
  20
-5.199999
  30
0.000000
  11
3.200000
  21
-5.099999
  31
0.000000
  0
LINE
  8
Standard
  62
0
  10
3.200000
  20
-5.099999
  30
0.000000
  11
3.000000
  21
-5.000001
  31
0.000000
  0
LINE
  8
Standard
  62
0
  10
3.000000
  20
-5.000001
  30
0.000000
  11
3.200000
  21
-4.899999
  31
0.000000
  0
LINE
  8
Standard
  62
0
  10
3.200000
  20
-4.899999
  30
0.000000
  11
3.000000
  21
-4.800000
  31
0.000000
  0
LINE
  8
Standard
  62
0
  10
3.100000
  20
-5.350000
  30
0.000000
  11
3.200000
  21
-5.300001
  31
0.000000
  0
LINE
  8
Standard
  62
0
  10
3.000000
  20
-4.800000
  30
0.000000
  11
3.100000
  21
-4.750001
  31
0.000000
  0
LINE
  8
Standard
  62
0
  10
3.100000
  20
-4.750001
  30
0.000000
  11
3.100000
  21
-4.550000
  31
0.000000
  0
LINE
  8
Standard
  62
0
  10
3.400000
  20
-5.300001
  30
0.000000
  11
3.200000
  21
-5.199999
  31
0.000000
  0
LINE
  8
Standard
  62
0
  10
3.200000
  20
-5.199999
  30
0.000000
  11
3.400000
  21
-5.099999
  31
0.000000
  0
LINE
  8
Standard
  62
0
  10
3.400000
  20
-5.099999
  30
0.000000
  11
3.200000
  21
-5.000001
  31
0.000000
  0
LINE
  8
Standard
  62
0
  10
3.200000
  20
-5.000001
  30
0.000000
  11
3.400000
  21
-4.899999
  31
0.000000
  0
LINE
  8
Standard
  62
0
  10
3.400000
  20
-4.899999
  30
0.000000
  11
3.200000
  21
-4.800000
  31
0.000000
  0
LINE
  8
Standard
  62
0
  10
3.300000
  20
-5.350000
  30
0.000000
  11
3.400000
  21
-5.300001
  31
0.000000
  0
LINE
  8
Standard
  62
0
  10
3.200000
  20
-4.800000
  30
0.000000
  11
3.300000
  21
-4.750001
  31
0.000000
  0
LINE
  8
Standard
  62
0
  10
3.300000
  20
-4.750001
  30
0.000000
  11
3.300000
  21
-4.550000
  31
0.000000
  0
LINE
  8
Standard
  62
0
  10
3.600000
  20
-5.300001
  30
0.000000
  11
3.400000
  21
-5.199999
  31
0.000000
  0
LINE
  8
Standard
  62
0
  10
3.400000
  20
-5.199999
  30
0.000000
  11
3.600000
  21
-5.099999
  31
0.000000
  0
LINE
  8
Standard
  62
0
  10
3.600000
  20
-5.099999
  30
0.000000
  11
3.400000
  21
-5.000001
  31
0.000000
  0
LINE
  8
Standard
  62
0
  10
3.400000
  20
-5.000001
  30
0.000000
  11
3.600000
  21
-4.899999
  31
0.000000
  0
LINE
  8
Standard
  62
0
  10
3.600000
  20
-4.899999
  30
0.000000
  11
3.400000
  21
-4.800000
  31
0.000000
  0
LINE
  8
Standard
  62
0
  10
3.500000
  20
-5.350000
  30
0.000000
  11
3.600000
  21
-5.300001
  31
0.000000
  0
LINE
  8
Standard
  62
0
  10
3.400000
  20
-4.800000
  30
0.000000
  11
3.500000
  21
-4.750001
  31
0.000000
  0
LINE
  8
Standard
  62
0
  10
3.500000
  20
-4.750001
  30
0.000000
  11
3.500000
  21
-4.550000
  31
0.000000
  0
LINE
  8
Standard
  62
0
  10
3.800000
  20
-5.300001
  30
0.000000
  11
3.600000
  21
-5.199999
  31
0.000000
  0
LINE
  8
Standard
  62
0
  10
3.600000
  20
-5.199999
  30
0.000000
  11
3.800000
  21
-5.099999
  31
0.000000
  0
LINE
  8
Standard
  62
0
  10
3.800000
  20
-5.099999
  30
0.000000
  11
3.600000
  21
-5.000001
  31
0.000000
  0
LINE
  8
Standard
  62
0
  10
3.600000
  20
-5.000001
  30
0.000000
  11
3.800000
  21
-4.899999
  31
0.000000
  0
LINE
  8
Standard
  62
0
  10
3.800000
  20
-4.899999
  30
0.000000
  11
3.600000
  21
-4.800000
  31
0.000000
  0
LINE
  8
Standard
  62
0
  10
3.700000
  20
-5.350000
  30
0.000000
  11
3.800000
  21
-5.300001
  31
0.000000
  0
LINE
  8
Standard
  62
0
  10
3.600000
  20
-4.800000
  30
0.000000
  11
3.700000
  21
-4.750001
  31
0.000000
  0
LINE
  8
Standard
  62
0
  10
3.700000
  20
-4.750001
  30
0.000000
  11
3.700000
  21
-4.550000
  31
0.000000
  0
LINE
  8
Standard
  62
0
  10
4.000000
  20
-5.300001
  30
0.000000
  11
3.800000
  21
-5.199999
  31
0.000000
  0
LINE
  8
Standard
  62
0
  10
3.800000
  20
-5.199999
  30
0.000000
  11
4.000000
  21
-5.099999
  31
0.000000
  0
LINE
  8
Standard
  62
0
  10
4.000000
  20
-5.099999
  30
0.000000
  11
3.800000
  21
-5.000001
  31
0.000000
  0
LINE
  8
Standard
  62
0
  10
3.800000
  20
-5.000001
  30
0.000000
  11
4.000000
  21
-4.899999
  31
0.000000
  0
LINE
  8
Standard
  62
0
  10
4.000000
  20
-4.899999
  30
0.000000
  11
3.800000
  21
-4.800000
  31
0.000000
  0
LINE
  8
Standard
  62
0
  10
3.900000
  20
-5.350000
  30
0.000000
  11
4.000000
  21
-5.300001
  31
0.000000
  0
LINE
  8
Standard
  62
0
  10
3.800000
  20
-4.800000
  30
0.000000
  11
3.900000
  21
-4.750001
  31
0.000000
  0
LINE
  8
Standard
  62
0
  10
3.900000
  20
-4.750001
  30
0.000000
  11
3.900000
  21
-4.550000
  31
0.000000
  0
LINE
  8
Standard
  62
0
  10
3.900000
  20
-5.350000
  30
0.000000
  11
3.900000
  21
-5.550001
  31
0.000000
  0
LINE
  8
Standard
  62
0
  10
3.700000
  20
-5.350000
  30
0.000000
  11
3.700000
  21
-5.550001
  31
0.000000
  0
LINE
  8
Standard
  62
0
  10
3.500000
  20
-5.350000
  30
0.000000
  11
3.500000
  21
-5.550001
  31
0.000000
  0
LINE
  8
Standard
  62
0
  10
3.300000
  20
-5.350000
  30
0.000000
  11
3.300000
  21
-5.550001
  31
0.000000
  0
LINE
  8
Standard
  62
0
  10
3.100000
  20
-5.350000
  30
0.000000
  11
3.100000
  21
-5.550001
  31
0.000000
  0
LINE
  8
Standard
  62
0
  10
2.900000
  20
-5.350000
  30
0.000000
  11
2.900000
  21
-5.550001
  31
0.000000
  0
LINE
  8
Standard
  62
0
  10
2.700000
  20
-5.350000
  30
0.000000
  11
2.700000
  21
-5.550001
  31
0.000000
  0
LINE
  8
Standard
  62
0
  10
2.500000
  20
-5.350000
  30
0.000000
  11
2.500000
  21
-5.550001
  31
0.000000
  0
LINE
  8
Standard
  62
0
  10
2.300000
  20
-5.550001
  30
0.000000
  11
3.900000
  21
-5.550001
  31
0.000000
  0
LINE
  8
Standard
  62
0
  10
3.800000
  20
-4.600001
  30
0.000000
  11
4.000000
  21
-4.499999
  31
0.000000
  0
LINE
  8
Standard
  62
0
  10
4.000000
  20
-4.599999
  30
0.000000
  11
3.800000
  21
-4.500001
  31
0.000000
  0
LINE
  8
Standard
  62
0
  10
3.600000
  20
-4.600001
  30
0.000000
  11
3.800000
  21
-4.499999
  31
0.000000
  0
LINE
  8
Standard
  62
0
  10
3.800000
  20
-4.599999
  30
0.000000
  11
3.600000
  21
-4.500001
  31
0.000000
  0
LINE
  8
Standard
  62
0
  10
3.400000
  20
-4.600001
  30
0.000000
  11
3.599999
  21
-4.499999
  31
0.000000
  0
LINE
  8
Standard
  62
0
  10
3.599999
  20
-4.599999
  30
0.000000
  11
3.400000
  21
-4.500001
  31
0.000000
  0
LINE
  8
Standard
  62
0
  10
2.300000
  20
-5.350000
  30
0.000000
  11
2.300000
  21
-7.000000
  31
0.000000
  0
LINE
  8
Standard
  62
0
  10
4.000000
  20
-7.000000
  30
0.000000
  11
-7.999999
  21
-7.000001
  31
0.000000
  0
TEXT
  8
Standard
  62
0
  10
4.225034
  20
-7.078661
  30
0.000000
  40
0.180000
  1
+ 5V EXT
  7
STANDARD
  0
LINE
  8
Standard
  62
0
  10
1.600000
  20
-6.700000
  30
0.000000
  11
-7.000000
  21
-6.700001
  31
0.000000
  0
LINE
  8
Standard
  62
0
  10
-7.450000
  20
-6.100000
  30
0.000000
  11
-7.450000
  21
-6.700001
  31
0.000000
  0
LINE
  8
Standard
  62
0
  10
-7.650000
  20
-6.100000
  30
0.000000
  11
-7.650000
  21
-6.700001
  31
0.000000
  0
LINE
  8
Standard
  62
0
  10
-7.650000
  20
-6.400001
  30
0.000000
  11
-8.000000
  21
-6.400001
  31
0.000000
  0
LINE
  8
Standard
  62
0
  10
-7.000000
  20
-6.400001
  30
0.000000
  11
-7.450000
  21
-6.400001
  31
0.000000
  0
TEXT
  8
Standard
  62
0
  10
-5.642139
  20
-5.222977
  30
0.000000
  40
0.180000
  1
DCP01B
  7
STANDARD
  0
LINE
  8
Standard
  62
0
  10
3.100000
  20
-4.550000
  30
0.000000
  11
3.100000
  21
2.450000
  31
0.000000
  0
LINE
  8
Standard
  62
0
  10
2.300001
  20
-1.550000
  30
0.000000
  11
2.300000
  21
-4.550000
  31
0.000000
  0
LINE
  8
Standard
  62
0
  10
2.500000
  20
-0.550000
  30
0.000000
  11
2.500000
  21
-4.550000
  31
0.000000
  0
LINE
  8
Standard
  62
0
  10
2.700000
  20
0.450000
  30
0.000000
  11
2.700000
  21
-4.550000
  31
0.000000
  0
LINE
  8
Standard
  62
0
  10
2.900000
  20
1.450000
  30
0.000000
  11
2.900000
  21
-4.550000
  31
0.000000
  0
TEXT
  8
Standard
  62
0
  10
4.175034
  20
-2.628662
  30
0.000000
  40
0.180000
  1
- 5V EXT
  7
STANDARD
  0
LINE
  8
Standard
  62
0
  10
-8.000000
  20
-5.800000
  30
0.000000
  11
-8.000000
  21
-7.000001
  31
0.000000
  0
LINE
  8
Standard
  62
0
  10
-7.000000
  20
-5.500000
  30
0.000000
  11
-7.000000
  21
-6.700001
  31
0.000000
  0
LINE
  8
Standard
  62
0
  10
-6.950000
  20
14.349999
  30
0.000000
  11
-7.300000
  21
14.349999
  31
0.000000
  0
LINE
  8
Standard
  62
0
  10
0.000000
  20
-1.950000
  30
0.000000
  11
-7.300000
  21
-1.950000
  31
0.000000
  0
LINE
  8
Standard
  62
0
  10
-2.600001
  20
2.450000
  30
0.000000
  11
-2.600000
  21
4.450000
  31
0.000000
  0
LINE
  8
Standard
  62
0
  10
-2.400000
  20
1.450000
  30
0.000000
  11
-2.400000
  21
4.450000
  31
0.000000
  0
LINE
  8
Standard
  62
0
  10
-2.200000
  20
0.450000
  30
0.000000
  11
-2.200000
  21
4.450000
  31
0.000000
  0
LINE
  8
Standard
  62
0
  10
-1.800000
  20
4.450000
  30
0.000000
  11
-1.800000
  21
-1.550000
  31
0.000000
  0
LINE
  8
Standard
  62
0
  10
-2.000000
  20
4.450000
  30
0.000000
  11
-2.000000
  21
-0.550000
  31
0.000000
  0
LINE
  8
Standard
  62
0
  10
-4.100000
  20
9.700000
  30
0.000000
  11
-4.100000
  21
16.950001
  31
0.000000
  0
LINE
  8
Standard
  62
0
  10
-8.700000
  20
-5.500000
  30
0.000000
  11
-6.000000
  21
-5.500000
  31
0.000000
  0
CIRCLE
  8
Standard
  62
0
  10
4.000000
  20
-7.000000
  30
0.000000
  40
0.050000
  0
LINE
  8
Standard
  62
0
  10
6.000000
  20
9.700000
  30
0.000000
  11
6.000000
  21
7.000000
  31
0.000000
  0
TEXT
  8
Standard
  62
0
  10
6.175034
  20
8.391339
  30
0.000000
  40
0.180000
  1
STEP & DIRECTION 
  7
STANDARD
  0
TEXT
  8
Standard
  62
0
  10
6.175034
  20
8.121339
  30
0.000000
  40
0.180000
  1
TO GECKODRIVES
  7
STANDARD
  0
LINE
  8
Standard
  62
0
  10
6.000000
  20
14.450000
  30
0.000000
  11
6.000000
  21
11.050000
  31
0.000000
  0
TEXT
  8
Standard
  62
0
  10
6.175034
  20
12.971338
  30
0.000000
  40
0.180000
  1
CONTROL OUTPUTS TO PLC
  7
STANDARD
  0
LINE
  8
Standard
  62
0
  10
6.000000
  20
-2.550000
  30
0.000000
  11
6.000000
  21
1.450000
  31
0.000000
  0
LINE
  8
Standard
  62
0
  10
-2.800000
  20
16.950001
  30
0.000000
  11
-8.300000
  21
16.950001
  31
0.000000
  0
LINE
  8
Standard
  62
0
  10
-8.300000
  20
16.950001
  30
0.000000
  11
-8.300000
  21
-4.300002
  31
0.000000
  0
LINE
  8
Standard
  62
0
  10
-2.800000
  20
16.250000
  30
0.000000
  11
-2.800000
  21
16.950001
  31
0.000000
  0
ARC
  8
Standard
  62
0
  10
1.600000
  20
1.450000
  30
0.000000
  40
0.050000
  50
0.000000
  51
180.000000
  0
LINE
  8
Standard
  62
0
  10
1.000000
  20
1.450000
  30
0.000000
  11
1.550000
  21
1.450000
  31
0.000000
  0
ARC
  8
Standard
  62
0
  10
1.600000
  20
0.450000
  30
0.000000
  40
0.050000
  50
0.000000
  51
180.000000
  0
LINE
  8
Standard
  62
0
  10
1.000000
  20
0.450000
  30
0.000000
  11
1.550000
  21
0.450000
  31
0.000000
  0
ARC
  8
Standard
  62
0
  10
1.600000
  20
-0.550000
  30
0.000000
  40
0.050000
  50
0.000000
  51
180.000000
  0
LINE
  8
Standard
  62
0
  10
1.000000
  20
-0.550000
  30
0.000000
  11
1.550000
  21
-0.550000
  31
0.000000
  0
ARC
  8
Standard
  62
0
  10
1.600000
  20
-1.550000
  30
0.000000
  40
0.050000
  50
0.000000
  51
180.000000
  0
LINE
  8
Standard
  62
0
  10
1.000000
  20
-1.550000
  30
0.000000
  11
1.550000
  21
-1.550000
  31
0.000000
  0
ARC
  8
Standard
  62
0
  10
-0.500000
  20
1.450000
  30
0.000000
  40
0.050000
  50
0.000000
  51
180.000000
  0
LINE
  8
Standard
  62
0
  10
0.000000
  20
1.450000
  30
0.000000
  11
-0.450000
  21
1.450000
  31
0.000000
  0
ARC
  8
Standard
  62
0
  10
-0.500000
  20
0.450000
  30
0.000000
  40
0.050000
  50
0.000000
  51
180.000000
  0
LINE
  8
Standard
  62
0
  10
0.000000
  20
0.450000
  30
0.000000
  11
-0.450000
  21
0.450000
  31
0.000000
  0
ARC
  8
Standard
  62
0
  10
-0.500000
  20
-0.550000
  30
0.000000
  40
0.050000
  50
0.000000
  51
180.000000
  0
LINE
  8
Standard
  62
0
  10
0.000000
  20
-0.550000
  30
0.000000
  11
-0.450000
  21
-0.550000
  31
0.000000
  0
ARC
  8
Standard
  62
0
  10
-0.500000
  20
-1.550000
  30
0.000000
  40
0.050000
  50
0.000000
  51
180.000000
  0
LINE
  8
Standard
  62
0
  10
0.000000
  20
-1.550000
  30
0.000000
  11
-0.450000
  21
-1.550000
  31
0.000000
  0
LINE
  8
Standard
  62
0
  10
-4.400000
  20
13.200002
  30
0.000000
  11
-4.200000
  21
13.099999
  31
0.000000
  0
LINE
  8
Standard
  62
0
  10
-4.200000
  20
13.200000
  30
0.000000
  11
-4.400000
  21
13.100001
  31
0.000000
  0
LINE
  8
Standard
  62
0
  10
-4.400000
  20
12.600001
  30
0.000000
  11
-4.200000
  21
12.499999
  31
0.000000
  0
LINE
  8
Standard
  62
0
  10
-4.200000
  20
12.599999
  30
0.000000
  11
-4.400000
  21
12.500001
  31
0.000000
  0
LINE
  8
Standard
  62
0
  10
-4.400000
  20
12.000001
  30
0.000000
  11
-4.200000
  21
11.899999
  31
0.000000
  0
LINE
  8
Standard
  62
0
  10
-4.200000
  20
11.999999
  30
0.000000
  11
-4.400000
  21
11.900001
  31
0.000000
  0
LINE
  8
Standard
  62
0
  10
-4.400000
  20
11.400001
  30
0.000000
  11
-4.200000
  21
11.299998
  31
0.000000
  0
LINE
  8
Standard
  62
0
  10
-4.200000
  20
11.399999
  30
0.000000
  11
-4.400000
  21
11.300000
  31
0.000000
  0
LINE
  8
Standard
  62
0
  10
-4.300000
  20
13.150001
  30
0.000000
  11
-4.500000
  21
13.150001
  31
0.000000
  0
LINE
  8
Standard
  62
0
  10
-4.300000
  20
12.550000
  30
0.000000
  11
-4.500000
  21
12.550000
  31
0.000000
  0
LINE
  8
Standard
  62
0
  10
-4.300000
  20
11.950000
  30
0.000000
  11
-4.500000
  21
11.950000
  31
0.000000
  0
LINE
  8
Standard
  62
0
  10
-4.300000
  20
11.349999
  30
0.000000
  11
-4.500000
  21
11.349999
  31
0.000000
  0
LINE
  8
Standard
  62
0
  10
-3.800000
  20
15.450001
  30
0.000000
  11
-3.800000
  21
9.400000
  31
0.000000
  0
LINE
  8
Standard
  62
0
  10
-7.300000
  20
15.450001
  30
0.000000
  11
-7.300000
  21
-4.599999
  31
0.000000
  0
ARC
  8
Standard
  62
0
  10
-3.800000
  20
9.700000
  30
0.000000
  40
0.050000
  50
0.000000
  51
180.000000
  0
LINE
  8
Standard
  62
0
  10
4.000000
  20
9.700000
  30
0.000000
  11
-3.750000
  21
9.700000
  31
0.000000
  0
LINE
  8
Standard
  62
0
  10
-3.850000
  20
9.700000
  30
0.000000
  11
-4.500000
  21
9.700000
  31
0.000000
  0
ARC
  8
Standard
  62
0
  10
-3.800000
  20
11.050000
  30
0.000000
  40
0.050000
  50
0.000000
  51
180.000000
  0
ARC
  8
Standard
  62
0
  10
-3.800000
  20
11.650000
  30
0.000000
  40
0.050000
  50
0.000000
  51
180.000000
  0
ARC
  8
Standard
  62
0
  10
-3.800000
  20
12.249999
  30
0.000000
  40
0.050000
  50
0.000000
  51
180.000000
  0
ARC
  8
Standard
  62
0
  10
-3.800000
  20
12.849999
  30
0.000000
  40
0.050000
  50
0.000000
  51
180.000000
  0
ARC
  8
Standard
  62
0
  10
-4.100000
  20
11.050000
  30
0.000000
  40
0.050000
  50
0.000000
  51
180.000000
  0
ARC
  8
Standard
  62
0
  10
-4.100000
  20
11.650000
  30
0.000000
  40
0.050000
  50
0.000000
  51
180.000000
  0
ARC
  8
Standard
  62
0
  10
-4.100000
  20
12.249999
  30
0.000000
  40
0.050000
  50
0.000000
  51
180.000000
  0
ARC
  8
Standard
  62
0
  10
-4.100000
  20
12.849999
  30
0.000000
  40
0.050000
  50
0.000000
  51
180.000000
  0
LINE
  8
Standard
  62
0
  10
-4.150000
  20
11.050000
  30
0.000000
  11
-4.500000
  21
11.050000
  31
0.000000
  0
LINE
  8
Standard
  62
0
  10
-1.000000
  20
11.050000
  30
0.000000
  11
-3.750000
  21
11.050000
  31
0.000000
  0
LINE
  8
Standard
  62
0
  10
-3.850000
  20
11.050000
  30
0.000000
  11
-4.050000
  21
11.050000
  31
0.000000
  0
LINE
  8
Standard
  62
0
  10
-4.150000
  20
12.849999
  30
0.000000
  11
-4.500000
  21
12.849999
  31
0.000000
  0
LINE
  8
Standard
  62
0
  10
-3.000000
  20
12.849999
  30
0.000000
  11
-3.750000
  21
12.849999
  31
0.000000
  0
LINE
  8
Standard
  62
0
  10
-3.850000
  20
12.849999
  30
0.000000
  11
-4.050000
  21
12.849999
  31
0.000000
  0
LINE
  8
Standard
  62
0
  10
-3.000000
  20
12.249999
  30
0.000000
  11
-3.750000
  21
12.249999
  31
0.000000
  0
LINE
  8
Standard
  62
0
  10
-3.850000
  20
12.249999
  30
0.000000
  11
-4.050000
  21
12.249999
  31
0.000000
  0
LINE
  8
Standard
  62
0
  10
-4.150000
  20
12.249999
  30
0.000000
  11
-4.500000
  21
12.249999
  31
0.000000
  0
LINE
  8
Standard
  62
0
  10
-4.150000
  20
11.650000
  30
0.000000
  11
-4.500000
  21
11.650000
  31
0.000000
  0
LINE
  8
Standard
  62
0
  10
-3.000000
  20
11.650000
  30
0.000000
  11
-3.750000
  21
11.650000
  31
0.000000
  0
LINE
  8
Standard
  62
0
  10
-3.850000
  20
11.650000
  30
0.000000
  11
-4.050000
  21
11.650000
  31
0.000000
  0
ARC
  8
Standard
  62
0
  10
-1.400000
  20
12.050000
  30
0.000000
  40
0.050000
  50
0.000000
  51
180.000000
  0
ARC
  8
Standard
  62
0
  10
-1.400000
  20
12.450000
  30
0.000000
  40
0.050000
  50
0.000000
  51
180.000000
  0
ARC
  8
Standard
  62
0
  10
-1.400000
  20
13.050000
  30
0.000000
  40
0.050000
  50
0.000000
  51
180.000000
  0
ARC
  8
Standard
  62
0
  10
-1.800000
  20
13.050000
  30
0.000000
  40
0.050000
  50
0.000000
  51
180.000000
  0
ARC
  8
Standard
  62
0
  10
-1.800000
  20
13.450000
  30
0.000000
  40
0.050000
  50
0.000000
  51
180.000000
  0
ARC
  8
Standard
  62
0
  10
-1.400000
  20
13.450000
  30
0.000000
  40
0.050000
  50
0.000000
  51
180.000000
  0
LINE
  8
Standard
  62
0
  10
-1.850000
  20
13.450000
  30
0.000000
  11
-2.200001
  21
13.450000
  31
0.000000
  0
LINE
  8
Standard
  62
0
  10
0.000000
  20
13.450000
  30
0.000000
  11
-1.350000
  21
13.450000
  31
0.000000
  0
LINE
  8
Standard
  62
0
  10
-1.450000
  20
13.450000
  30
0.000000
  11
-1.750000
  21
13.450000
  31
0.000000
  0
LINE
  8
Standard
  62
0
  10
-1.850000
  20
13.050000
  30
0.000000
  11
-2.400000
  21
13.050000
  31
0.000000
  0
LINE
  8
Standard
  62
0
  10
0.000000
  20
13.050000
  30
0.000000
  11
-1.350000
  21
13.050000
  31
0.000000
  0
LINE
  8
Standard
  62
0
  10
-1.450000
  20
13.050000
  30
0.000000
  11
-1.750000
  21
13.050000
  31
0.000000
  0
LINE
  8
Standard
  62
0
  10
0.000000
  20
12.450000
  30
0.000000
  11
-1.350000
  21
12.450000
  31
0.000000
  0
LINE
  8
Standard
  62
0
  10
-1.450000
  20
12.450000
  30
0.000000
  11
-1.800000
  21
12.450000
  31
0.000000
  0
LINE
  8
Standard
  62
0
  10
0.000000
  20
12.050000
  30
0.000000
  11
-1.350000
  21
12.050000
  31
0.000000
  0
LINE
  8
Standard
  62
0
  10
-1.450000
  20
12.050000
  30
0.000000
  11
-2.400000
  21
12.050000
  31
0.000000
  0
ARC
  8
Standard
  62
0
  10
-4.100000
  20
13.450000
  30
0.000000
  40
0.050000
  50
0.000000
  51
180.000000
  0
LINE
  8
Standard
  62
0
  10
-3.800000
  20
13.450000
  30
0.000000
  11
-4.050000
  21
13.450000
  31
0.000000
  0
LINE
  8
Standard
  62
0
  10
-4.150000
  20
13.450000
  30
0.000000
  11
-4.500000
  21
13.450000
  31
0.000000
  0
ARC
  8
Standard
  62
0
  10
-4.100000
  20
15.450001
  30
0.000000
  40
0.050000
  50
0.000000
  51
180.000000
  0
ARC
  8
Standard
  62
0
  10
-2.200000
  20
14.450000
  30
0.000000
  40
0.050000
  50
0.000000
  51
180.000000
  0
ARC
  8
Standard
  62
0
  10
-2.200001
  20
14.050000
  30
0.000000
  40
0.050000
  50
0.000000
  51
180.000000
  0
LINE
  8
Standard
  62
0
  10
-3.800000
  20
15.450001
  30
0.000000
  11
-4.050000
  21
15.450001
  31
0.000000
  0
LINE
  8
Standard
  62
0
  10
-4.150000
  20
15.450001
  30
0.000000
  11
-7.300001
  21
15.450001
  31
0.000000
  0
LINE
  8
Standard
  62
0
  10
-2.250000
  20
14.450000
  30
0.000000
  11
-2.600000
  21
14.450000
  31
0.000000
  0
LINE
  8
Standard
  62
0
  10
-2.250000
  20
14.050000
  30
0.000000
  11
-2.400000
  21
14.050000
  31
0.000000
  0
ARC
  8
Standard
  62
0
  10
-7.300000
  20
13.150001
  30
0.000000
  40
0.050000
  50
0.000000
  51
180.000000
  0
ARC
  8
Standard
  62
0
  10
-7.300000
  20
12.550000
  30
0.000000
  40
0.050000
  50
0.000000
  51
180.000000
  0
ARC
  8
Standard
  62
0
  10
-7.300000
  20
11.950000
  30
0.000000
  40
0.050000
  50
0.000000
  51
180.000000
  0
ARC
  8
Standard
  62
0
  10
-7.300000
  20
11.350000
  30
0.000000
  40
0.050000
  50
0.000000
  51
180.000000
  0
LINE
  8
Standard
  62
0
  10
-7.250000
  20
13.150001
  30
0.000000
  11
-6.000000
  21
13.150001
  31
0.000000
  0
LINE
  8
Standard
  62
0
  10
-7.250000
  20
12.550000
  30
0.000000
  11
-6.000000
  21
12.550000
  31
0.000000
  0
LINE
  8
Standard
  62
0
  10
-7.250000
  20
11.950000
  30
0.000000
  11
-6.000000
  21
11.950000
  31
0.000000
  0
LINE
  8
Standard
  62
0
  10
-7.250000
  20
11.349999
  30
0.000000
  11
-6.000000
  21
11.350000
  31
0.000000
  0
ARC
  8
Standard
  62
0
  10
-8.300000
  20
11.349999
  30
0.000000
  40
0.050000
  50
0.000000
  51
180.000000
  0
LINE
  8
Standard
  62
0
  10
-14.500000
  20
11.349999
  30
0.000000
  11
-8.350000
  21
11.349999
  31
0.000000
  0
LINE
  8
Standard
  62
0
  10
-8.250000
  20
11.349999
  30
0.000000
  11
-7.350000
  21
11.349999
  31
0.000000
  0
ARC
  8
Standard
  62
0
  10
-7.300000
  20
9.400001
  30
0.000000
  40
0.050000
  50
0.000000
  51
180.000000
  0
LINE
  8
Standard
  62
0
  10
-7.250000
  20
9.400000
  30
0.000000
  11
-6.000000
  21
9.400001
  31
0.000000
  0
ARC
  8
Standard
  62
0
  10
-8.300000
  20
9.400000
  30
0.000000
  40
0.050000
  50
0.000000
  51
180.000000
  0
LINE
  8
Standard
  62
0
  10
-14.500000
  20
9.400000
  30
0.000000
  11
-8.350000
  21
9.400000
  31
0.000000
  0
LINE
  8
Standard
  62
0
  10
-8.250000
  20
9.400000
  30
0.000000
  11
-7.350000
  21
9.400000
  31
0.000000
  0
ARC
  8
Standard
  62
0
  10
-7.300000
  20
9.100000
  30
0.000000
  40
0.050000
  50
0.000000
  51
180.000000
  0
LINE
  8
Standard
  62
0
  10
-7.250000
  20
9.099999
  30
0.000000
  11
-6.000000
  21
9.100000
  31
0.000000
  0
ARC
  8
Standard
  62
0
  10
-8.300000
  20
9.099999
  30
0.000000
  40
0.050000
  50
0.000000
  51
180.000000
  0
LINE
  8
Standard
  62
0
  10
-14.500000
  20
9.099999
  30
0.000000
  11
-8.350000
  21
9.099999
  31
0.000000
  0
LINE
  8
Standard
  62
0
  10
-8.250000
  20
9.099999
  30
0.000000
  11
-7.350000
  21
9.099999
  31
0.000000
  0
ARC
  8
Standard
  62
0
  10
-7.300000
  20
8.800000
  30
0.000000
  40
0.050000
  50
0.000000
  51
180.000000
  0
LINE
  8
Standard
  62
0
  10
-7.250000
  20
8.799999
  30
0.000000
  11
-6.000000
  21
8.800000
  31
0.000000
  0
ARC
  8
Standard
  62
0
  10
-8.300000
  20
8.799999
  30
0.000000
  40
0.050000
  50
0.000000
  51
180.000000
  0
LINE
  8
Standard
  62
0
  10
-14.500000
  20
8.799999
  30
0.000000
  11
-8.350000
  21
8.799999
  31
0.000000
  0
LINE
  8
Standard
  62
0
  10
-8.250000
  20
8.799999
  30
0.000000
  11
-7.350000
  21
8.799999
  31
0.000000
  0
ARC
  8
Standard
  62
0
  10
-7.300000
  20
8.500000
  30
0.000000
  40
0.050000
  50
0.000000
  51
180.000000
  0
LINE
  8
Standard
  62
0
  10
-7.250000
  20
8.499999
  30
0.000000
  11
-6.000000
  21
8.500000
  31
0.000000
  0
ARC
  8
Standard
  62
0
  10
-8.300000
  20
8.499999
  30
0.000000
  40
0.050000
  50
0.000000
  51
180.000000
  0
LINE
  8
Standard
  62
0
  10
-14.500000
  20
8.499999
  30
0.000000
  11
-8.350000
  21
8.499999
  31
0.000000
  0
LINE
  8
Standard
  62
0
  10
-8.250000
  20
8.499999
  30
0.000000
  11
-7.350000
  21
8.499999
  31
0.000000
  0
ARC
  8
Standard
  62
0
  10
-7.300000
  20
8.200001
  30
0.000000
  40
0.050000
  50
0.000000
  51
180.000000
  0
LINE
  8
Standard
  62
0
  10
-7.250000
  20
8.199999
  30
0.000000
  11
-6.000000
  21
8.200001
  31
0.000000
  0
ARC
  8
Standard
  62
0
  10
-8.300000
  20
8.199999
  30
0.000000
  40
0.050000
  50
0.000000
  51
180.000000
  0
LINE
  8
Standard
  62
0
  10
-14.500000
  20
8.199999
  30
0.000000
  11
-8.350000
  21
8.199999
  31
0.000000
  0
LINE
  8
Standard
  62
0
  10
-8.250000
  20
8.199999
  30
0.000000
  11
-7.350000
  21
8.199999
  31
0.000000
  0
ARC
  8
Standard
  62
0
  10
-7.300000
  20
7.900000
  30
0.000000
  40
0.050000
  50
0.000000
  51
180.000000
  0
LINE
  8
Standard
  62
0
  10
-7.250000
  20
7.899999
  30
0.000000
  11
-6.000000
  21
7.900000
  31
0.000000
  0
ARC
  8
Standard
  62
0
  10
-8.300000
  20
7.899999
  30
0.000000
  40
0.050000
  50
0.000000
  51
180.000000
  0
LINE
  8
Standard
  62
0
  10
-14.500000
  20
7.899999
  30
0.000000
  11
-8.350000
  21
7.899999
  31
0.000000
  0
LINE
  8
Standard
  62
0
  10
-8.250000
  20
7.899999
  30
0.000000
  11
-7.350000
  21
7.899999
  31
0.000000
  0
ARC
  8
Standard
  62
0
  10
-7.300000
  20
7.600000
  30
0.000000
  40
0.050000
  50
0.000000
  51
180.000000
  0
LINE
  8
Standard
  62
0
  10
-7.250000
  20
7.599999
  30
0.000000
  11
-6.000000
  21
7.600000
  31
0.000000
  0
ARC
  8
Standard
  62
0
  10
-8.300000
  20
7.599999
  30
0.000000
  40
0.050000
  50
0.000000
  51
180.000000
  0
LINE
  8
Standard
  62
0
  10
-14.500000
  20
7.599999
  30
0.000000
  11
-8.350000
  21
7.599999
  31
0.000000
  0
LINE
  8
Standard
  62
0
  10
-8.250000
  20
7.599999
  30
0.000000
  11
-7.350000
  21
7.599999
  31
0.000000
  0
ARC
  8
Standard
  62
0
  10
-7.300000
  20
7.300000
  30
0.000000
  40
0.050000
  50
0.000000
  51
180.000000
  0
LINE
  8
Standard
  62
0
  10
-7.250000
  20
7.299999
  30
0.000000
  11
-6.000000
  21
7.300000
  31
0.000000
  0
ARC
  8
Standard
  62
0
  10
-8.300000
  20
7.299999
  30
0.000000
  40
0.050000
  50
0.000000
  51
180.000000
  0
LINE
  8
Standard
  62
0
  10
-14.500000
  20
7.299999
  30
0.000000
  11
-8.350000
  21
7.299999
  31
0.000000
  0
LINE
  8
Standard
  62
0
  10
-8.250000
  20
7.299999
  30
0.000000
  11
-7.350000
  21
7.299999
  31
0.000000
  0
ARC
  8
Standard
  62
0
  10
-1.400000
  20
14.050000
  30
0.000000
  40
0.050000
  50
0.000000
  51
180.000000
  0
ARC
  8
Standard
  62
0
  10
-1.800000
  20
14.050000
  30
0.000000
  40
0.050000
  50
0.000000
  51
180.000000
  0
ARC
  8
Standard
  62
0
  10
-1.800000
  20
14.450000
  30
0.000000
  40
0.050000
  50
0.000000
  51
180.000000
  0
ARC
  8
Standard
  62
0
  10
-1.400000
  20
14.450000
  30
0.000000
  40
0.050000
  50
0.000000
  51
180.000000
  0
LINE
  8
Standard
  62
0
  10
-1.850000
  20
14.450000
  30
0.000000
  11
-2.150000
  21
14.450000
  31
0.000000
  0
LINE
  8
Standard
  62
0
  10
0.000000
  20
14.450000
  30
0.000000
  11
-1.350000
  21
14.450000
  31
0.000000
  0
LINE
  8
Standard
  62
0
  10
-1.450000
  20
14.450000
  30
0.000000
  11
-1.750000
  21
14.450000
  31
0.000000
  0
LINE
  8
Standard
  62
0
  10
0.000000
  20
14.050000
  30
0.000000
  11
-1.350000
  21
14.050000
  31
0.000000
  0
LINE
  8
Standard
  62
0
  10
-1.450000
  20
14.050000
  30
0.000000
  11
-1.750000
  21
14.050000
  31
0.000000
  0
LINE
  8
Standard
  62
0
  10
-1.850000
  20
14.050000
  30
0.000000
  11
-2.150001
  21
14.050000
  31
0.000000
  0
ARC
  8
Standard
  62
0
  10
-8.300000
  20
11.949999
  30
0.000000
  40
0.050000
  50
0.000000
  51
180.000000
  0
LINE
  8
Standard
  62
0
  10
-14.500000
  20
11.949999
  30
0.000000
  11
-8.350000
  21
11.949999
  31
0.000000
  0
LINE
  8
Standard
  62
0
  10
-8.250000
  20
11.949999
  30
0.000000
  11
-7.350000
  21
11.949999
  31
0.000000
  0
ARC
  8
Standard
  62
0
  10
-8.300000
  20
12.549999
  30
0.000000
  40
0.050000
  50
0.000000
  51
180.000000
  0
LINE
  8
Standard
  62
0
  10
-14.500000
  20
12.549999
  30
0.000000
  11
-8.350000
  21
12.549999
  31
0.000000
  0
LINE
  8
Standard
  62
0
  10
-8.250000
  20
12.549999
  30
0.000000
  11
-7.350000
  21
12.549999
  31
0.000000
  0
ARC
  8
Standard
  62
0
  10
-8.300000
  20
13.150000
  30
0.000000
  40
0.050000
  50
0.000000
  51
180.000000
  0
LINE
  8
Standard
  62
0
  10
-14.500000
  20
13.150000
  30
0.000000
  11
-8.350000
  21
13.150000
  31
0.000000
  0
LINE
  8
Standard
  62
0
  10
-8.250000
  20
13.150000
  30
0.000000
  11
-7.350000
  21
13.150000
  31
0.000000
  0
ARC
  8
Standard
  62
0
  10
-1.800000
  20
-0.550000
  30
0.000000
  40
0.050000
  50
0.000000
  51
180.000000
  0
ARC
  8
Standard
  62
0
  10
-1.800000
  20
0.450000
  30
0.000000
  40
0.050000
  50
0.000000
  51
180.000000
  0
ARC
  8
Standard
  62
0
  10
-2.000000
  20
0.450000
  30
0.000000
  40
0.050000
  50
0.000000
  51
180.000000
  0
ARC
  8
Standard
  62
0
  10
-1.800000
  20
1.450000
  30
0.000000
  40
0.050000
  50
0.000000
  51
180.000000
  0
ARC
  8
Standard
  62
0
  10
-2.000000
  20
1.450000
  30
0.000000
  40
0.050000
  50
0.000000
  51
180.000000
  0
ARC
  8
Standard
  62
0
  10
-2.200000
  20
1.450000
  30
0.000000
  40
0.050000
  50
0.000000
  51
180.000000
  0
ARC
  8
Standard
  62
0
  10
-1.800000
  20
2.450000
  30
0.000000
  40
0.050000
  50
0.000000
  51
180.000000
  0
ARC
  8
Standard
  62
0
  10
-2.000000
  20
2.450000
  30
0.000000
  40
0.050000
  50
0.000000
  51
180.000000
  0
ARC
  8
Standard
  62
0
  10
-2.200000
  20
2.450000
  30
0.000000
  40
0.050000
  50
0.000000
  51
180.000000
  0
ARC
  8
Standard
  62
0
  10
-2.400000
  20
2.450000
  30
0.000000
  40
0.050000
  50
0.000000
  51
180.000000
  0
ARC
  8
Standard
  62
0
  10
-7.300000
  20
2.450000
  30
0.000000
  40
0.050000
  50
0.000000
  51
180.000000
  0
ARC
  8
Standard
  62
0
  10
-8.300000
  20
2.450000
  30
0.000000
  40
0.050000
  50
0.000000
  51
180.000000
  0
ARC
  8
Standard
  62
0
  10
-8.300000
  20
1.450000
  30
0.000000
  40
0.050000
  50
0.000000
  51
180.000000
  0
ARC
  8
Standard
  62
0
  10
-7.300000
  20
1.450000
  30
0.000000
  40
0.050000
  50
0.000000
  51
180.000000
  0
ARC
  8
Standard
  62
0
  10
-7.300000
  20
0.450000
  30
0.000000
  40
0.050000
  50
0.000000
  51
180.000000
  0
ARC
  8
Standard
  62
0
  10
-7.300000
  20
-0.550000
  30
0.000000
  40
0.050000
  50
0.000000
  51
180.000000
  0
ARC
  8
Standard
  62
0
  10
-8.300000
  20
0.450000
  30
0.000000
  40
0.050000
  50
0.000000
  51
180.000000
  0
ARC
  8
Standard
  62
0
  10
-8.300000
  20
-0.550000
  30
0.000000
  40
0.050000
  50
0.000000
  51
180.000000
  0
ARC
  8
Standard
  62
0
  10
-7.300000
  20
-1.550000
  30
0.000000
  40
0.050000
  50
0.000000
  51
180.000000
  0
ARC
  8
Standard
  62
0
  10
-8.300000
  20
-1.550000
  30
0.000000
  40
0.050000
  50
0.000000
  51
180.000000
  0
LINE
  8
Standard
  62
0
  10
-0.550000
  20
0.450000
  30
0.000000
  11
-1.750000
  21
0.450000
  31
0.000000
  0
LINE
  8
Standard
  62
0
  10
-1.850000
  20
0.450000
  30
0.000000
  11
-1.950000
  21
0.450000
  31
0.000000
  0
LINE
  8
Standard
  62
0
  10
-0.550000
  20
-0.550000
  30
0.000000
  11
-1.750000
  21
-0.550000
  31
0.000000
  0
LINE
  8
Standard
  62
0
  10
-0.550000
  20
1.450000
  30
0.000000
  11
-1.750000
  21
1.450000
  31
0.000000
  0
LINE
  8
Standard
  62
0
  10
-1.850000
  20
1.450000
  30
0.000000
  11
-1.950000
  21
1.450000
  31
0.000000
  0
LINE
  8
Standard
  62
0
  10
-2.050000
  20
1.450000
  30
0.000000
  11
-2.150000
  21
1.450000
  31
0.000000
  0
LINE
  8
Standard
  62
0
  10
-1.850000
  20
2.450000
  30
0.000000
  11
-1.950000
  21
2.450000
  31
0.000000
  0
LINE
  8
Standard
  62
0
  10
-2.050000
  20
2.450000
  30
0.000000
  11
-2.150000
  21
2.450000
  31
0.000000
  0
LINE
  8
Standard
  62
0
  10
-2.250000
  20
2.450000
  30
0.000000
  11
-2.350000
  21
2.450000
  31
0.000000
  0
LINE
  8
Standard
  62
0
  10
-2.450000
  20
2.450000
  30
0.000000
  11
-7.250000
  21
2.450000
  31
0.000000
  0
LINE
  8
Standard
  62
0
  10
-7.350000
  20
2.450000
  30
0.000000
  11
-8.250000
  21
2.450000
  31
0.000000
  0
LINE
  8
Standard
  62
0
  10
-8.350000
  20
2.450000
  30
0.000000
  11
-14.499999
  21
2.450000
  31
0.000000
  0
LINE
  8
Standard
  62
0
  10
-2.250000
  20
1.450000
  30
0.000000
  11
-7.250000
  21
1.450000
  31
0.000000
  0
LINE
  8
Standard
  62
0
  10
-7.350000
  20
1.450000
  30
0.000000
  11
-8.250000
  21
1.450000
  31
0.000000
  0
LINE
  8
Standard
  62
0
  10
-8.350000
  20
1.450000
  30
0.000000
  11
-14.499999
  21
1.450000
  31
0.000000
  0
LINE
  8
Standard
  62
0
  10
-2.050000
  20
0.450000
  30
0.000000
  11
-7.250000
  21
0.450000
  31
0.000000
  0
LINE
  8
Standard
  62
0
  10
-7.350000
  20
0.450000
  30
0.000000
  11
-8.250000
  21
0.450000
  31
0.000000
  0
LINE
  8
Standard
  62
0
  10
-8.350000
  20
0.450000
  30
0.000000
  11
-14.499999
  21
0.450000
  31
0.000000
  0
LINE
  8
Standard
  62
0
  10
-1.850000
  20
-0.550000
  30
0.000000
  11
-7.250000
  21
-0.550000
  31
0.000000
  0
LINE
  8
Standard
  62
0
  10
-7.350000
  20
-0.550000
  30
0.000000
  11
-8.250000
  21
-0.550000
  31
0.000000
  0
LINE
  8
Standard
  62
0
  10
-8.350000
  20
-0.550000
  30
0.000000
  11
-14.499999
  21
-0.550000
  31
0.000000
  0
LINE
  8
Standard
  62
0
  10
-0.550000
  20
-1.550000
  30
0.000000
  11
-7.250000
  21
-1.550000
  31
0.000000
  0
LINE
  8
Standard
  62
0
  10
-7.350000
  20
-1.550000
  30
0.000000
  11
-8.250000
  21
-1.550000
  31
0.000000
  0
LINE
  8
Standard
  62
0
  10
-8.350000
  20
-1.550000
  30
0.000000
  11
-14.499999
  21
-1.550000
  31
0.000000
  0
ARC
  8
Standard
  62
0
  10
-7.300000
  20
-4.300001
  30
0.000000
  40
0.050000
  50
0.000000
  51
180.000000
  0
ARC
  8
Standard
  62
0
  10
-7.000000
  20
-5.800000
  30
0.000000
  40
0.050000
  50
0.000000
  51
180.000000
  0
LINE
  8
Standard
  62
0
  10
-14.500000
  20
-4.300001
  30
0.000000
  11
-7.350000
  21
-4.300001
  31
0.000000
  0
LINE
  8
Standard
  62
0
  10
-7.250000
  20
-4.300001
  30
0.000000
  11
-6.000000
  21
-4.300001
  31
0.000000
  0
LINE
  8
Standard
  62
0
  10
-8.000000
  20
-5.800000
  30
0.000000
  11
-7.050000
  21
-5.800000
  31
0.000000
  0
LINE
  8
Standard
  62
0
  10
-6.949999
  20
-5.800000
  30
0.000000
  11
-6.000000
  21
-5.800000
  31
0.000000
  0
ARC
  8
Standard
  62
0
  10
3.300000
  20
1.450000
  30
0.000000
  40
0.050000
  50
0.000000
  51
180.000000
  0
ARC
  8
Standard
  62
0
  10
3.100000
  20
1.450000
  30
0.000000
  40
0.050000
  50
0.000000
  51
180.000000
  0
ARC
  8
Standard
  62
0
  10
2.900000
  20
0.450000
  30
0.000000
  40
0.050000
  50
0.000000
  51
180.000000
  0
ARC
  8
Standard
  62
0
  10
3.100000
  20
0.450000
  30
0.000000
  40
0.050000
  50
0.000000
  51
180.000000
  0
ARC
  8
Standard
  62
0
  10
3.300000
  20
0.450000
  30
0.000000
  40
0.050000
  50
0.000000
  51
180.000000
  0
LINE
  8
Standard
  62
0
  10
1.650000
  20
1.450000
  30
0.000000
  11
3.050000
  21
1.450000
  31
0.000000
  0
LINE
  8
Standard
  62
0
  10
3.150000
  20
1.450000
  30
0.000000
  11
3.250000
  21
1.450000
  31
0.000000
  0
LINE
  8
Standard
  62
0
  10
3.350000
  20
1.450000
  30
0.000000
  11
4.000000
  21
1.450000
  31
0.000000
  0
LINE
  8
Standard
  62
0
  10
1.650000
  20
0.450000
  30
0.000000
  11
2.850000
  21
0.450000
  31
0.000000
  0
LINE
  8
Standard
  62
0
  10
2.950000
  20
0.450000
  30
0.000000
  11
3.050000
  21
0.450000
  31
0.000000
  0
LINE
  8
Standard
  62
0
  10
3.150000
  20
0.450000
  30
0.000000
  11
3.250000
  21
0.450000
  31
0.000000
  0
LINE
  8
Standard
  62
0
  10
3.350000
  20
0.450000
  30
0.000000
  11
4.000000
  21
0.450000
  31
0.000000
  0
ARC
  8
Standard
  62
0
  10
2.700000
  20
-0.550000
  30
0.000000
  40
0.050000
  50
0.000000
  51
180.000000
  0
ARC
  8
Standard
  62
0
  10
2.900000
  20
-0.550000
  30
0.000000
  40
0.050000
  50
0.000000
  51
180.000000
  0
ARC
  8
Standard
  62
0
  10
3.100000
  20
-0.550000
  30
0.000000
  40
0.050000
  50
0.000000
  51
180.000000
  0
ARC
  8
Standard
  62
0
  10
3.300000
  20
-0.550000
  30
0.000000
  40
0.050000
  50
0.000000
  51
180.000000
  0
ARC
  8
Standard
  62
0
  10
3.300000
  20
-1.550000
  30
0.000000
  40
0.050000
  50
0.000000
  51
180.000000
  0
ARC
  8
Standard
  62
0
  10
3.100000
  20
-1.550000
  30
0.000000
  40
0.050000
  50
0.000000
  51
180.000000
  0
ARC
  8
Standard
  62
0
  10
2.900000
  20
-1.550000
  30
0.000000
  40
0.050000
  50
0.000000
  51
180.000000
  0
ARC
  8
Standard
  62
0
  10
2.700000
  20
-1.550000
  30
0.000000
  40
0.050000
  50
0.000000
  51
180.000000
  0
ARC
  8
Standard
  62
0
  10
2.500000
  20
-1.550000
  30
0.000000
  40
0.050000
  50
0.000000
  51
180.000000
  0
LINE
  8
Standard
  62
0
  10
1.650000
  20
-0.550000
  30
0.000000
  11
2.650000
  21
-0.550000
  31
0.000000
  0
LINE
  8
Standard
  62
0
  10
2.750000
  20
-0.550000
  30
0.000000
  11
2.850000
  21
-0.550000
  31
0.000000
  0
LINE
  8
Standard
  62
0
  10
2.950000
  20
-0.550000
  30
0.000000
  11
3.050000
  21
-0.550000
  31
0.000000
  0
LINE
  8
Standard
  62
0
  10
3.150000
  20
-0.550000
  30
0.000000
  11
3.250000
  21
-0.550000
  31
0.000000
  0
LINE
  8
Standard
  62
0
  10
3.350000
  20
-0.550000
  30
0.000000
  11
4.000000
  21
-0.550000
  31
0.000000
  0
LINE
  8
Standard
  62
0
  10
3.350000
  20
-1.550000
  30
0.000000
  11
4.000000
  21
-1.550000
  31
0.000000
  0
LINE
  8
Standard
  62
0
  10
3.150000
  20
-1.550000
  30
0.000000
  11
3.250000
  21
-1.550000
  31
0.000000
  0
LINE
  8
Standard
  62
0
  10
2.950000
  20
-1.550000
  30
0.000000
  11
3.050000
  21
-1.550000
  31
0.000000
  0
LINE
  8
Standard
  62
0
  10
2.750000
  20
-1.550000
  30
0.000000
  11
2.850000
  21
-1.550000
  31
0.000000
  0
LINE
  8
Standard
  62
0
  10
1.650000
  20
-1.550000
  30
0.000000
  11
2.450000
  21
-1.550000
  31
0.000000
  0
LINE
  8
Standard
  62
0
  10
2.549999
  20
-1.550000
  30
0.000000
  11
2.650000
  21
-1.550000
  31
0.000000
  0
ARC
  8
Standard
  62
0
  10
3.299999
  20
-2.550000
  30
0.000000
  40
0.050000
  50
0.000000
  51
180.000000
  0
ARC
  8
Standard
  62
0
  10
3.099999
  20
-2.550000
  30
0.000000
  40
0.050000
  50
0.000000
  51
180.000000
  0
ARC
  8
Standard
  62
0
  10
2.899999
  20
-2.550000
  30
0.000000
  40
0.050000
  50
0.000000
  51
180.000000
  0
ARC
  8
Standard
  62
0
  10
2.699999
  20
-2.550000
  30
0.000000
  40
0.050000
  50
0.000000
  51
180.000000
  0
ARC
  8
Standard
  62
0
  10
2.499999
  20
-2.550000
  30
0.000000
  40
0.050000
  50
0.000000
  51
180.000000
  0
LINE
  8
Standard
  62
0
  10
3.349999
  20
-2.550000
  30
0.000000
  11
4.000000
  21
-2.550000
  31
0.000000
  0
LINE
  8
Standard
  62
0
  10
3.149999
  20
-2.550000
  30
0.000000
  11
3.249999
  21
-2.550000
  31
0.000000
  0
LINE
  8
Standard
  62
0
  10
2.949999
  20
-2.550000
  30
0.000000
  11
3.049999
  21
-2.550000
  31
0.000000
  0
LINE
  8
Standard
  62
0
  10
2.749999
  20
-2.550000
  30
0.000000
  11
2.849999
  21
-2.550000
  31
0.000000
  0
LINE
  8
Standard
  62
0
  10
2.549999
  20
-2.550000
  30
0.000000
  11
2.649999
  21
-2.550000
  31
0.000000
  0
ARC
  8
Standard
  62
0
  10
2.299999
  20
-2.550000
  30
0.000000
  40
0.050000
  50
0.000000
  51
180.000000
  0
LINE
  8
Standard
  62
0
  10
2.349999
  20
-2.550000
  30
0.000000
  11
2.450000
  21
-2.550000
  31
0.000000
  0
LINE
  8
Standard
  62
0
  10
2.249999
  20
-2.550000
  30
0.000000
  11
1.600000
  21
-2.550000
  31
0.000000
  0
ARC
  8
Standard
  62
0
  10
3.099999
  20
-3.550000
  30
0.000000
  40
0.050000
  50
0.000000
  51
180.000000
  0
ARC
  8
Standard
  62
0
  10
2.899999
  20
-3.550000
  30
0.000000
  40
0.050000
  50
0.000000
  51
180.000000
  0
ARC
  8
Standard
  62
0
  10
2.699999
  20
-3.550000
  30
0.000000
  40
0.050000
  50
0.000000
  51
180.000000
  0
ARC
  8
Standard
  62
0
  10
2.499999
  20
-3.550000
  30
0.000000
  40
0.050000
  50
0.000000
  51
180.000000
  0
LINE
  8
Standard
  62
0
  10
2.949999
  20
-3.550000
  30
0.000000
  11
3.049999
  21
-3.550000
  31
0.000000
  0
LINE
  8
Standard
  62
0
  10
2.749999
  20
-3.550000
  30
0.000000
  11
2.849999
  21
-3.550000
  31
0.000000
  0
LINE
  8
Standard
  62
0
  10
2.549999
  20
-3.550000
  30
0.000000
  11
2.649999
  21
-3.550000
  31
0.000000
  0
ARC
  8
Standard
  62
0
  10
2.299999
  20
-3.550000
  30
0.000000
  40
0.050000
  50
0.000000
  51
180.000000
  0
LINE
  8
Standard
  62
0
  10
2.349999
  20
-3.550000
  30
0.000000
  11
2.450000
  21
-3.550000
  31
0.000000
  0
LINE
  8
Standard
  62
0
  10
2.249999
  20
-3.550000
  30
0.000000
  11
1.600000
  21
-3.550000
  31
0.000000
  0
LINE
  8
Standard
  62
0
  10
3.149999
  20
-3.550000
  30
0.000000
  11
3.300000
  21
-3.550000
  31
0.000000
  0
LINE
  8
Standard
  62
0
  10
3.300000
  20
-4.550000
  30
0.000000
  11
3.300000
  21
-3.550000
  31
0.000000
  0
LINE
  8
Standard
  62
0
  10
-2.500000
  20
5.200001
  30
0.000000
  11
-2.700000
  21
5.099998
  31
0.000000
  0
LINE
  8
Standard
  62
0
  10
-2.700000
  20
5.099998
  30
0.000000
  11
-2.500000
  21
4.999999
  31
0.000000
  0
LINE
  8
Standard
  62
0
  10
-2.500000
  20
4.999999
  30
0.000000
  11
-2.700000
  21
4.900001
  31
0.000000
  0
LINE
  8
Standard
  62
0
  10
-2.700000
  20
4.900001
  30
0.000000
  11
-2.500000
  21
4.799998
  31
0.000000
  0
LINE
  8
Standard
  62
0
  10
-2.500000
  20
4.799998
  30
0.000000
  11
-2.700000
  21
4.700000
  31
0.000000
  0
LINE
  8
Standard
  62
0
  10
-2.600000
  20
5.250000
  30
0.000000
  11
-2.500000
  21
5.200001
  31
0.000000
  0
LINE
  8
Standard
  62
0
  10
-2.700000
  20
4.700000
  30
0.000000
  11
-2.600000
  21
4.650001
  31
0.000000
  0
LINE
  8
Standard
  62
0
  10
-2.600000
  20
4.650001
  30
0.000000
  11
-2.600000
  21
4.450000
  31
0.000000
  0
LINE
  8
Standard
  62
0
  10
-2.300001
  20
5.200001
  30
0.000000
  11
-2.500000
  21
5.099998
  31
0.000000
  0
LINE
  8
Standard
  62
0
  10
-2.500000
  20
5.099998
  30
0.000000
  11
-2.300001
  21
4.999999
  31
0.000000
  0
LINE
  8
Standard
  62
0
  10
-2.300001
  20
4.999999
  30
0.000000
  11
-2.500000
  21
4.900001
  31
0.000000
  0
LINE
  8
Standard
  62
0
  10
-2.500000
  20
4.900001
  30
0.000000
  11
-2.300001
  21
4.799998
  31
0.000000
  0
LINE
  8
Standard
  62
0
  10
-2.300001
  20
4.799998
  30
0.000000
  11
-2.500000
  21
4.700000
  31
0.000000
  0
LINE
  8
Standard
  62
0
  10
-2.400001
  20
5.250000
  30
0.000000
  11
-2.300001
  21
5.200001
  31
0.000000
  0
LINE
  8
Standard
  62
0
  10
-2.500000
  20
4.700000
  30
0.000000
  11
-2.400001
  21
4.650001
  31
0.000000
  0
LINE
  8
Standard
  62
0
  10
-2.400001
  20
4.650001
  30
0.000000
  11
-2.400001
  21
4.450000
  31
0.000000
  0
LINE
  8
Standard
  62
0
  10
-2.100000
  20
5.200001
  30
0.000000
  11
-2.300000
  21
5.099998
  31
0.000000
  0
LINE
  8
Standard
  62
0
  10
-2.300000
  20
5.099998
  30
0.000000
  11
-2.100000
  21
4.999999
  31
0.000000
  0
LINE
  8
Standard
  62
0
  10
-2.100000
  20
4.999999
  30
0.000000
  11
-2.300000
  21
4.900001
  31
0.000000
  0
LINE
  8
Standard
  62
0
  10
-2.300000
  20
4.900001
  30
0.000000
  11
-2.100000
  21
4.799998
  31
0.000000
  0
LINE
  8
Standard
  62
0
  10
-2.100000
  20
4.799998
  30
0.000000
  11
-2.300000
  21
4.700000
  31
0.000000
  0
LINE
  8
Standard
  62
0
  10
-2.200000
  20
5.250000
  30
0.000000
  11
-2.100000
  21
5.200001
  31
0.000000
  0
LINE
  8
Standard
  62
0
  10
-2.300000
  20
4.700000
  30
0.000000
  11
-2.200000
  21
4.650001
  31
0.000000
  0
LINE
  8
Standard
  62
0
  10
-2.200000
  20
4.650001
  30
0.000000
  11
-2.200000
  21
4.450000
  31
0.000000
  0
LINE
  8
Standard
  62
0
  10
-1.900001
  20
5.200001
  30
0.000000
  11
-2.100000
  21
5.099998
  31
0.000000
  0
LINE
  8
Standard
  62
0
  10
-2.100000
  20
5.099998
  30
0.000000
  11
-1.900001
  21
4.999999
  31
0.000000
  0
LINE
  8
Standard
  62
0
  10
-1.900001
  20
4.999999
  30
0.000000
  11
-2.100000
  21
4.900001
  31
0.000000
  0
LINE
  8
Standard
  62
0
  10
-2.100000
  20
4.900001
  30
0.000000
  11
-1.900001
  21
4.799998
  31
0.000000
  0
LINE
  8
Standard
  62
0
  10
-1.900001
  20
4.799998
  30
0.000000
  11
-2.100000
  21
4.700000
  31
0.000000
  0
LINE
  8
Standard
  62
0
  10
-2.000000
  20
5.250000
  30
0.000000
  11
-1.900001
  21
5.200001
  31
0.000000
  0
LINE
  8
Standard
  62
0
  10
-2.100000
  20
4.700000
  30
0.000000
  11
-2.000000
  21
4.650001
  31
0.000000
  0
LINE
  8
Standard
  62
0
  10
-2.000000
  20
4.650001
  30
0.000000
  11
-2.000000
  21
4.450000
  31
0.000000
  0
LINE
  8
Standard
  62
0
  10
-1.700000
  20
5.200001
  30
0.000000
  11
-1.900000
  21
5.099998
  31
0.000000
  0
LINE
  8
Standard
  62
0
  10
-1.900000
  20
5.099998
  30
0.000000
  11
-1.700000
  21
4.999999
  31
0.000000
  0
LINE
  8
Standard
  62
0
  10
-1.700000
  20
4.999999
  30
0.000000
  11
-1.900000
  21
4.900001
  31
0.000000
  0
LINE
  8
Standard
  62
0
  10
-1.900000
  20
4.900001
  30
0.000000
  11
-1.700000
  21
4.799998
  31
0.000000
  0
LINE
  8
Standard
  62
0
  10
-1.700000
  20
4.799998
  30
0.000000
  11
-1.900000
  21
4.700000
  31
0.000000
  0
LINE
  8
Standard
  62
0
  10
-1.800000
  20
5.250000
  30
0.000000
  11
-1.700000
  21
5.200001
  31
0.000000
  0
LINE
  8
Standard
  62
0
  10
-1.900000
  20
4.700000
  30
0.000000
  11
-1.800000
  21
4.650001
  31
0.000000
  0
LINE
  8
Standard
  62
0
  10
-1.800000
  20
4.650001
  30
0.000000
  11
-1.800000
  21
4.450000
  31
0.000000
  0
LINE
  8
Standard
  62
0
  10
-1.500001
  20
5.200001
  30
0.000000
  11
-1.700000
  21
5.099998
  31
0.000000
  0
LINE
  8
Standard
  62
0
  10
-1.700000
  20
5.099998
  30
0.000000
  11
-1.500001
  21
4.999999
  31
0.000000
  0
LINE
  8
Standard
  62
0
  10
-1.500001
  20
4.999999
  30
0.000000
  11
-1.700000
  21
4.900001
  31
0.000000
  0
LINE
  8
Standard
  62
0
  10
-1.700000
  20
4.900001
  30
0.000000
  11
-1.500001
  21
4.799998
  31
0.000000
  0
LINE
  8
Standard
  62
0
  10
-1.500001
  20
4.799998
  30
0.000000
  11
-1.700000
  21
4.700000
  31
0.000000
  0
LINE
  8
Standard
  62
0
  10
-1.600001
  20
5.250000
  30
0.000000
  11
-1.500001
  21
5.200001
  31
0.000000
  0
LINE
  8
Standard
  62
0
  10
-1.700000
  20
4.700000
  30
0.000000
  11
-1.600001
  21
4.650001
  31
0.000000
  0
LINE
  8
Standard
  62
0
  10
-1.600001
  20
4.650001
  30
0.000000
  11
-1.600001
  21
4.450000
  31
0.000000
  0
LINE
  8
Standard
  62
0
  10
-1.300000
  20
5.200001
  30
0.000000
  11
-1.500000
  21
5.099998
  31
0.000000
  0
LINE
  8
Standard
  62
0
  10
-1.500000
  20
5.099998
  30
0.000000
  11
-1.300000
  21
4.999999
  31
0.000000
  0
LINE
  8
Standard
  62
0
  10
-1.300000
  20
4.999999
  30
0.000000
  11
-1.500000
  21
4.900001
  31
0.000000
  0
LINE
  8
Standard
  62
0
  10
-1.500000
  20
4.900001
  30
0.000000
  11
-1.300000
  21
4.799998
  31
0.000000
  0
LINE
  8
Standard
  62
0
  10
-1.300000
  20
4.799998
  30
0.000000
  11
-1.500000
  21
4.700000
  31
0.000000
  0
LINE
  8
Standard
  62
0
  10
-1.400001
  20
5.250000
  30
0.000000
  11
-1.300000
  21
5.200001
  31
0.000000
  0
LINE
  8
Standard
  62
0
  10
-1.500000
  20
4.700000
  30
0.000000
  11
-1.400001
  21
4.650001
  31
0.000000
  0
LINE
  8
Standard
  62
0
  10
-1.400001
  20
4.650001
  30
0.000000
  11
-1.400001
  21
4.450000
  31
0.000000
  0
LINE
  8
Standard
  62
0
  10
-1.100001
  20
5.200001
  30
0.000000
  11
-1.300000
  21
5.099998
  31
0.000000
  0
LINE
  8
Standard
  62
0
  10
-1.300000
  20
5.099998
  30
0.000000
  11
-1.100001
  21
4.999999
  31
0.000000
  0
LINE
  8
Standard
  62
0
  10
-1.100001
  20
4.999999
  30
0.000000
  11
-1.300000
  21
4.900001
  31
0.000000
  0
LINE
  8
Standard
  62
0
  10
-1.300000
  20
4.900001
  30
0.000000
  11
-1.100001
  21
4.799998
  31
0.000000
  0
LINE
  8
Standard
  62
0
  10
-1.100001
  20
4.799998
  30
0.000000
  11
-1.300000
  21
4.700000
  31
0.000000
  0
LINE
  8
Standard
  62
0
  10
-1.200000
  20
5.250000
  30
0.000000
  11
-1.100001
  21
5.200001
  31
0.000000
  0
LINE
  8
Standard
  62
0
  10
-1.300000
  20
4.700000
  30
0.000000
  11
-1.200000
  21
4.650001
  31
0.000000
  0
LINE
  8
Standard
  62
0
  10
-1.200000
  20
4.650001
  30
0.000000
  11
-1.200000
  21
4.450000
  31
0.000000
  0
LINE
  8
Standard
  62
0
  10
-0.900001
  20
5.200001
  30
0.000000
  11
-1.100001
  21
5.099998
  31
0.000000
  0
LINE
  8
Standard
  62
0
  10
-1.100001
  20
5.099998
  30
0.000000
  11
-0.900001
  21
4.999999
  31
0.000000
  0
LINE
  8
Standard
  62
0
  10
-0.900001
  20
4.999999
  30
0.000000
  11
-1.100001
  21
4.900001
  31
0.000000
  0
LINE
  8
Standard
  62
0
  10
-1.100001
  20
4.900001
  30
0.000000
  11
-0.900001
  21
4.799998
  31
0.000000
  0
LINE
  8
Standard
  62
0
  10
-0.900001
  20
4.799998
  30
0.000000
  11
-1.100001
  21
4.700000
  31
0.000000
  0
LINE
  8
Standard
  62
0
  10
-1.000001
  20
5.250000
  30
0.000000
  11
-0.900001
  21
5.200001
  31
0.000000
  0
LINE
  8
Standard
  62
0
  10
-1.100001
  20
4.700000
  30
0.000000
  11
-1.000001
  21
4.650001
  31
0.000000
  0
LINE
  8
Standard
  62
0
  10
-1.000001
  20
4.650001
  30
0.000000
  11
-1.000001
  21
4.450000
  31
0.000000
  0
LINE
  8
Standard
  62
0
  10
-1.000001
  20
5.250000
  30
0.000000
  11
-1.000001
  21
5.450001
  31
0.000000
  0
LINE
  8
Standard
  62
0
  10
-1.200000
  20
5.250000
  30
0.000000
  11
-1.200000
  21
5.450001
  31
0.000000
  0
LINE
  8
Standard
  62
0
  10
-1.400001
  20
5.250000
  30
0.000000
  11
-1.400001
  21
5.450001
  31
0.000000
  0
LINE
  8
Standard
  62
0
  10
-1.600001
  20
5.250000
  30
0.000000
  11
-1.600001
  21
5.450001
  31
0.000000
  0
LINE
  8
Standard
  62
0
  10
-1.800000
  20
5.250000
  30
0.000000
  11
-1.800000
  21
5.450001
  31
0.000000
  0
LINE
  8
Standard
  62
0
  10
-2.000000
  20
5.250000
  30
0.000000
  11
-2.000000
  21
5.450001
  31
0.000000
  0
LINE
  8
Standard
  62
0
  10
-2.200000
  20
5.250000
  30
0.000000
  11
-2.200000
  21
5.450001
  31
0.000000
  0
LINE
  8
Standard
  62
0
  10
-2.400001
  20
5.250000
  30
0.000000
  11
-2.400001
  21
5.450001
  31
0.000000
  0
LINE
  8
Standard
  62
0
  10
-2.600000
  20
5.450001
  30
0.000000
  11
-1.000001
  21
5.450001
  31
0.000000
  0
LINE
  8
Standard
  62
0
  10
-1.100001
  20
4.500001
  30
0.000000
  11
-0.900001
  21
4.399999
  31
0.000000
  0
LINE
  8
Standard
  62
0
  10
-0.900001
  20
4.499999
  30
0.000000
  11
-1.100001
  21
4.400001
  31
0.000000
  0
LINE
  8
Standard
  62
0
  10
-1.300000
  20
4.500001
  30
0.000000
  11
-1.100001
  21
4.399999
  31
0.000000
  0
LINE
  8
Standard
  62
0
  10
-1.100001
  20
4.499999
  30
0.000000
  11
-1.300000
  21
4.400001
  31
0.000000
  0
LINE
  8
Standard
  62
0
  10
-1.500001
  20
4.500001
  30
0.000000
  11
-1.300001
  21
4.399999
  31
0.000000
  0
LINE
  8
Standard
  62
0
  10
-1.300001
  20
4.499999
  30
0.000000
  11
-1.500001
  21
4.400001
  31
0.000000
  0
LINE
  8
Standard
  62
0
  10
-2.600000
  20
5.250000
  30
0.000000
  11
-2.600000
  21
5.750001
  31
0.000000
  0
TEXT
  8
Standard
  62
0
  10
-2.564890
  20
5.982334
  30
0.000000
  40
0.180000
  1
+ 5V COMP
  7
STANDARD
  0
LINE
  8
Standard
  62
0
  10
-1.700000
  20
4.500001
  30
0.000000
  11
-1.500000
  21
4.399999
  31
0.000000
  0
LINE
  8
Standard
  62
0
  10
-1.500000
  20
4.499999
  30
0.000000
  11
-1.700000
  21
4.400001
  31
0.000000
  0
LINE
  8
Standard
  62
0
  10
-0.500000
  20
2.050000
  30
0.000000
  11
-0.500000
  21
-1.949999
  31
0.000000
  0
LINE
  8
Standard
  62
0
  10
1.600000
  20
2.050000
  30
0.000000
  11
1.600000
  21
-6.700000
  31
0.000000
  0
LINE
  8
Standard
  62
0
  10
0.000000
  20
2.450000
  30
0.000000
  11
-1.750000
  21
2.450000
  31
0.000000
  0
LINE
  8
Standard
  62
0
  10
1.000000
  20
2.450000
  30
0.000000
  11
4.000000
  21
2.450000
  31
0.000000
  0
TEXT
  8
Standard
  62
0
  10
6.175034
  20
2.371338
  30
0.000000
  40
0.180000
  1
E-STOP FROM PLC (N.C.)
  7
STANDARD
  0
TEXT
  8
Standard
  62
0
  10
6.175034
  20
0.371338
  30
0.000000
  40
0.180000
  1
FROM LIMIT SWITCHES (N.C.)
  7
STANDARD
  0
TEXT
  8
Standard
  62
0
  10
-1.974022
  20
16.631693
  30
0.000000
  40
0.180000
  1
RP4 560 OHM
  7
STANDARD
  0
TEXT
  8
Standard
  62
0
  10
-0.501695
  20
5.147540
  30
0.000000
  40
0.180000
  1
RP1 1K OHM
  7
STANDARD
  0
TEXT
  8
Standard
  62
0
  10
4.625054
  20
-5.155017
  30
0.000000
  40
0.180000
  1
RP2  560 OHM
  7
STANDARD
  0
ARC
  8
Standard
  62
0
  10
-7.300000
  20
5.750001
  30
0.000000
  40
0.050000
  50
0.000000
  51
180.000000
  0
LINE
  8
Standard
  62
0
  10
-2.600000
  20
5.750001
  30
0.000000
  11
-7.250000
  21
5.750001
  31
0.000000
  0
LINE
  8
Standard
  62
0
  10
-7.350000
  20
5.750001
  30
0.000000
  11
-8.300000
  21
5.750001
  31
0.000000
  0
TEXT
  8
Standard
  62
0
  10
4.175034
  20
-2.928662
  30
0.000000
  40
0.180000
  1
(1-9,15,)
  7
STANDARD
  0
TEXT
  8
Standard
  62
0
  10
6.175033
  20
-2.628662
  30
0.000000
  40
0.180000
  1
LIMIT SWITCHES RETURN PATH
  7
STANDARD
  0
TEXT
  8
Standard
  62
0
  10
4.175034
  20
2.071338
  30
0.000000
  40
0.180000
  1
(10)
  7
STANDARD
  0
TEXT
  8
Standard
  62
0
  10
4.175034
  20
1.071338
  30
0.000000
  40
0.180000
  1
(8)
  7
STANDARD
  0
TEXT
  8
Standard
  62
0
  10
4.175034
  20
0.071338
  30
0.000000
  40
0.180000
  1
(6)
  7
STANDARD
  0
TEXT
  8
Standard
  62
0
  10
4.175034
  20
-0.928662
  30
0.000000
  40
0.180000
  1
(4)
  7
STANDARD
  0
TEXT
  8
Standard
  62
0
  10
4.175034
  20
-1.928662
  30
0.000000
  40
0.180000
  1
(2)
  7
STANDARD
  0
TEXT
  8
Standard
  62
0
  10
4.175034
  20
9.321338
  30
0.000000
  40
0.180000
  1
(29-34)
  7
STANDARD
  0
TEXT
  8
Standard
  62
0
  10
4.675034
  20
9.021338
  30
0.000000
  40
0.180000
  1
(28)
  7
STANDARD
  0
TEXT
  8
Standard
  62
0
  10
4.675034
  20
8.721338
  30
0.000000
  40
0.180000
  1
(27)
  7
STANDARD
  0
TEXT
  8
Standard
  62
0
  10
4.675034
  20
8.421339
  30
0.000000
  40
0.180000
  1
(26)
  7
STANDARD
  0
TEXT
  8
Standard
  62
0
  10
4.675034
  20
8.121339
  30
0.000000
  40
0.180000
  1
(25)
  7
STANDARD
  0
TEXT
  8
Standard
  62
0
  10
4.675034
  20
7.821339
  30
0.000000
  40
0.180000
  1
(24)
  7
STANDARD
  0
TEXT
  8
Standard
  62
0
  10
4.675034
  20
7.221339
  30
0.000000
  40
0.180000
  1
(22)
  7
STANDARD
  0
TEXT
  8
Standard
  62
0
  10
4.675034
  20
6.921339
  30
0.000000
  40
0.180000
  1
(21)
  7
STANDARD
  0
TEXT
  8
Standard
  62
0
  10
4.675034
  20
7.521338
  30
0.000000
  40
0.180000
  1
(23)
  7
STANDARD
  0
TEXT
  8
Standard
  62
0
  10
6.175034
  20
9.591339
  30
0.000000
  40
0.180000
  1
STEP & DIRECTION 
  7
STANDARD
  0
TEXT
  8
Standard
  62
0
  10
6.175034
  20
9.321339
  30
0.000000
  40
0.180000
  1
+5V COMMON
  7
STANDARD
  0
LINE
  8
Standard
  62
0
  10
1.000000
  20
-16.600000
  30
0.000000
  11
4.000000
  21
-16.600000
  31
0.000000
  0
LINE
  8
Standard
  62
0
  10
1.000000
  20
-17.000002
  30
0.000000
  11
4.000000
  21
-17.000002
  31
0.000000
  0
POLYLINE
  8
Standard
  62
5
  66
1
  70
0
  0
VERTEX
  8
Standard
  62
5
  10
0.250000
  20
-16.925001
  30
0.000000
  0
VERTEX
  8
Standard
  62
5
  10
0.375000
  20
-16.675001
  30
0.000000
  0
SEQEND
  8
Standard
  62
5
  0
POLYLINE
  8
Standard
  62
5
  66
1
  70
0
  0
VERTEX
  8
Standard
  62
5
  10
0.375000
  20
-16.675001
  30
0.000000
  0
VERTEX
  8
Standard
  62
5
  10
0.125000
  20
-16.675001
  30
0.000000
  0
SEQEND
  8
Standard
  62
5
  0
POLYLINE
  8
Standard
  62
5
  66
1
  70
0
  0
VERTEX
  8
Standard
  62
5
  10
0.125000
  20
-16.675001
  30
0.000000
  0
VERTEX
  8
Standard
  62
5
  10
0.250000
  20
-16.925001
  30
0.000000
  0
SEQEND
  8
Standard
  62
5
  0
POLYLINE
  8
Standard
  62
5
  66
1
  70
0
  0
VERTEX
  8
Standard
  62
5
  10
0.850000
  20
-16.970001
  30
0.000000
  0
VERTEX
  8
Standard
  62
5
  10
0.719118
  20
-16.961472
  30
0.000000
  0
SEQEND
  8
Standard
  62
5
  0
POLYLINE
  8
Standard
  62
5
  66
1
  70
0
  0
VERTEX
  8
Standard
  62
5
  10
0.719118
  20
-16.961472
  30
0.000000
  0
VERTEX
  8
Standard
  62
5
  10
0.780882
  20
-16.858530
  30
0.000000
  0
SEQEND
  8
Standard
  62
5
  0
POLYLINE
  8
Standard
  62
5
  66
1
  70
0
  0
VERTEX
  8
Standard
  62
5
  10
0.780882
  20
-16.858530
  30
0.000000
  0
VERTEX
  8
Standard
  62
5
  10
0.850000
  20
-16.970001
  30
0.000000
  0
SEQEND
  8
Standard
  62
5
  0
POLYLINE
  8
Standard
  62
5
  66
1
  70
1
  0
VERTEX
  8
Standard
  62
5
  10
0.000000
  20
-17.050001
  30
0.000000
  0
VERTEX
  8
Standard
  62
5
  10
0.000000
  20
-16.550001
  30
0.000000
  0
VERTEX
  8
Standard
  62
5
  10
1.000000
  20
-16.550001
  30
0.000000
  0
VERTEX
  8
Standard
  62
5
  10
1.000000
  20
-17.050001
  30
0.000000
  0
SEQEND
  8
Standard
  62
5
  0
LINE
  8
Standard
  62
5
  10
0.375000
  20
-16.925001
  30
0.000000
  11
0.125000
  21
-16.925001
  31
0.000000
  0
LINE
  8
Standard
  62
5
  10
0.250000
  20
-16.925001
  30
0.000000
  11
0.250000
  21
-17.000002
  31
0.000000
  0
LINE
  8
Standard
  62
5
  10
0.250000
  20
-16.600000
  30
0.000000
  11
0.250000
  21
-16.675001
  31
0.000000
  0
LINE
  8
Standard
  62
5
  10
0.000000
  20
-16.600000
  30
0.000000
  11
0.250000
  21
-16.600000
  31
0.000000
  0
LINE
  8
Standard
  62
5
  10
0.900000
  20
-16.600000
  30
0.000000
  11
1.000000
  21
-16.600000
  31
0.000000
  0
LINE
  8
Standard
  62
5
  10
0.000000
  20
-17.000002
  30
0.000000
  11
0.250000
  21
-17.000002
  31
0.000000
  0
LINE
  8
Standard
  62
5
  10
0.900000
  20
-17.000002
  30
0.000000
  11
1.000000
  21
-17.000002
  31
0.000000
  0
LINE
  8
Standard
  62
5
  10
0.650000
  20
-16.650002
  30
0.000000
  11
0.650000
  21
-16.950001
  31
0.000000
  0
LINE
  8
Standard
  62
5
  10
0.650000
  20
-16.750002
  30
0.000000
  11
0.900000
  21
-16.600000
  31
0.000000
  0
LINE
  8
Standard
  62
5
  10
0.650000
  20
-16.850000
  30
0.000000
  11
0.750000
  21
-16.910002
  31
0.000000
  0
LINE
  8
Standard
  62
5
  10
0.850000
  20
-16.970001
  30
0.000000
  11
0.900000
  21
-17.000002
  31
0.000000
  0
CIRCLE
  8
Standard
  62
0
  10
4.000000
  20
-16.600000
  30
0.000000
  40
0.050000
  0
CIRCLE
  8
Standard
  62
0
  10
4.000000
  20
-17.000002
  30
0.000000
  40
0.050000
  0
TEXT
  8
Standard
  62
0
  10
4.175034
  20
-16.678663
  30
0.000000
  40
0.180000
  1
STATUS +
  7
STANDARD
  0
TEXT
  8
Standard
  62
0
  10
4.175034
  20
-17.078663
  30
0.000000
  40
0.180000
  1
STATUS -
  7
STANDARD
  0
LINE
  8
Standard
  62
0
  10
-0.250000
  20
-16.900003
  30
0.000000
  11
-0.350002
  21
-17.100004
  31
0.000000
  0
LINE
  8
Standard
  62
0
  10
-0.350002
  20
-17.100004
  30
0.000000
  11
-0.450002
  21
-16.900003
  31
0.000000
  0
LINE
  8
Standard
  62
0
  10
-0.450002
  20
-16.900003
  30
0.000000
  11
-0.550000
  21
-17.100004
  31
0.000000
  0
LINE
  8
Standard
  62
0
  10
-0.550000
  20
-17.100004
  30
0.000000
  11
-0.650002
  21
-16.900003
  31
0.000000
  0
LINE
  8
Standard
  62
0
  10
-0.650002
  20
-16.900003
  30
0.000000
  11
-0.750001
  21
-17.100004
  31
0.000000
  0
LINE
  8
Standard
  62
0
  10
-0.200001
  20
-17.000002
  30
0.000000
  11
-0.250000
  21
-16.900003
  31
0.000000
  0
LINE
  8
Standard
  62
0
  10
-0.750001
  20
-17.100004
  30
0.000000
  11
-0.800000
  21
-17.000002
  31
0.000000
  0
LINE
  8
Standard
  62
0
  10
-0.200001
  20
-17.000002
  30
0.000000
  11
0.000000
  21
-17.000002
  31
0.000000
  0
LINE
  8
Standard
  62
5
  10
-1.550000
  20
-16.100002
  30
0.000000
  11
-0.950001
  21
-16.100002
  31
0.000000
  0
LINE
  8
Standard
  62
0
  10
-0.849999
  20
-16.600002
  30
0.000000
  11
0.000000
  21
-16.600000
  31
0.000000
  0
LINE
  8
Standard
  62
0
  10
-0.800000
  20
-17.000002
  30
0.000000
  11
-8.700000
  21
-17.000002
  31
0.000000
  0
CIRCLE
  8
Standard
  62
0
  10
4.000000
  20
-8.000001
  30
0.000000
  40
0.050000
  0
TEXT
  8
Standard
  62
0
  10
4.175034
  20
-8.078664
  30
0.000000
  40
0.180000
  1
ENC -
  7
STANDARD
  0
LINE
  8
Standard
  62
0
  10
6.000000
  20
-17.000002
  30
0.000000
  11
6.000000
  21
-16.600000
  31
0.000000
  0
TEXT
  8
Standard
  62
0
  10
6.175034
  20
-16.878662
  30
0.000000
  40
0.180000
  1
TO PLC X5
  7
STANDARD
  0
TEXT
  8
Standard
  62
0
  10
4.175034
  20
-8.378664
  30
0.000000
  40
0.180000
  1
(16)
  7
STANDARD
  0
TEXT
  8
Standard
  62
0
  10
5.475034
  20
-16.678663
  30
0.000000
  40
0.180000
  1
(11)
  7
STANDARD
  0
TEXT
  8
Standard
  62
0
  10
5.475034
  20
-17.078663
  30
0.000000
  40
0.180000
  1
(12)
  7
STANDARD
  0
LINE
  8
Standard
  62
5
  10
-1.149998
  20
-16.100002
  30
0.000000
  11
-0.849999
  21
-16.600006
  31
0.000000
  0
LINE
  8
Standard
  62
5
  10
-1.349995
  20
-16.100002
  30
0.000000
  11
-1.469998
  21
-16.300003
  31
0.000000
  0
LINE
  8
Standard
  62
5
  10
-1.590001
  20
-16.500004
  30
0.000000
  11
-1.650002
  21
-16.600002
  31
0.000000
  0
POLYLINE
  8
Standard
  62
5
  66
1
  70
0
  0
VERTEX
  8
Standard
  62
5
  10
-1.469998
  20
-16.300005
  30
0.000000
  0
VERTEX
  8
Standard
  62
5
  10
-1.692939
  20
-16.438240
  30
0.000000
  0
SEQEND
  8
Standard
  62
5
  0
POLYLINE
  8
Standard
  62
5
  66
1
  70
0
  0
VERTEX
  8
Standard
  62
5
  10
-1.692939
  20
-16.438240
  30
0.000000
  0
VERTEX
  8
Standard
  62
5
  10
-1.487060
  20
-16.561773
  30
0.000000
  0
SEQEND
  8
Standard
  62
5
  0
POLYLINE
  8
Standard
  62
5
  66
1
  70
0
  0
VERTEX
  8
Standard
  62
5
  10
-1.487060
  20
-16.561773
  30
0.000000
  0
VERTEX
  8
Standard
  62
5
  10
-1.469998
  20
-16.300005
  30
0.000000
  0
SEQEND
  8
Standard
  62
5
  0
TEXT
  8
Standard
  62
0
  10
-0.718503
  20
-17.529568
  30
0.000000
  40
0.180000
  1
220
  7
STANDARD
  0
LINE
  8
Standard
  62
0
  10
-1.150002
  20
-15.850001
  30
0.000000
  11
-1.350003
  21
-15.749999
  31
0.000000
  0
LINE
  8
Standard
  62
0
  10
-1.350003
  20
-15.749999
  30
0.000000
  11
-1.150002
  21
-15.650001
  31
0.000000
  0
LINE
  8
Standard
  62
0
  10
-1.150002
  20
-15.650001
  30
0.000000
  11
-1.350003
  21
-15.550002
  31
0.000000
  0
LINE
  8
Standard
  62
0
  10
-1.350003
  20
-15.550002
  30
0.000000
  11
-1.150002
  21
-15.450000
  31
0.000000
  0
LINE
  8
Standard
  62
0
  10
-1.150002
  20
-15.450000
  30
0.000000
  11
-1.350003
  21
-15.350001
  31
0.000000
  0
LINE
  8
Standard
  62
0
  10
-1.250001
  20
-15.900001
  30
0.000000
  11
-1.150002
  21
-15.850001
  31
0.000000
  0
LINE
  8
Standard
  62
0
  10
-1.350003
  20
-15.350001
  30
0.000000
  11
-1.250001
  21
-15.300002
  31
0.000000
  0
LINE
  8
Standard
  62
0
  10
-1.250001
  20
-15.300002
  30
0.000000
  11
-1.250001
  21
-15.100001
  31
0.000000
  0
LINE
  8
Standard
  62
0
  10
-1.250001
  20
-15.900001
  30
0.000000
  11
-1.250001
  21
-16.100002
  31
0.000000
  0
TEXT
  8
Standard
  62
0
  10
-0.902870
  20
-15.595077
  30
0.000000
  40
0.180000
  1
10K
  7
STANDARD
  0
LINE
  8
Standard
  62
0
  10
-1.650002
  20
-16.600002
  30
0.000000
  11
-7.999999
  21
-16.600002
  31
0.000000
  0
TEXT
  8
Standard
  62
0
  10
-0.870277
  20
-16.409901
  30
0.000000
  40
0.180000
  1
Q1 2907
  7
STANDARD
  0
TEXT
  8
Standard
  62
0
  10
6.175034
  20
-7.808664
  30
0.000000
  40
0.180000
  1
TO ENCODER NEGATIVE
  7
STANDARD
  0
TEXT
  8
Standard
  62
0
  10
6.175034
  20
-8.078664
  30
0.000000
  40
0.180000
  1
G320/340 PIN 5
  7
STANDARD
  0
LINE
  8
Standard
  62
0
  10
1.000000
  20
-15.100001
  30
0.000000
  11
4.000000
  21
-15.100001
  31
0.000000
  0
CIRCLE
  8
Standard
  62
0
  10
4.000000
  20
-15.100001
  30
0.000000
  40
0.050000
  0
LINE
  8
Standard
  62
0
  10
1.000000
  20
-14.100001
  30
0.000000
  11
4.000000
  21
-14.100001
  31
0.000000
  0
CIRCLE
  8
Standard
  62
0
  10
4.000000
  20
-14.100001
  30
0.000000
  40
0.050000
  0
LINE
  8
Standard
  62
0
  10
1.000000
  20
-13.100002
  30
0.000000
  11
4.000000
  21
-13.100002
  31
0.000000
  0
CIRCLE
  8
Standard
  62
0
  10
4.000000
  20
-13.100002
  30
0.000000
  40
0.050000
  0
LINE
  8
Standard
  62
0
  10
1.000000
  20
-12.100002
  30
0.000000
  11
4.000000
  21
-12.100002
  31
0.000000
  0
CIRCLE
  8
Standard
  62
0
  10
4.000000
  20
-12.100002
  30
0.000000
  40
0.050000
  0
POLYLINE
  8
Standard
  62
5
  66
1
  70
0
  0
VERTEX
  8
Standard
  62
5
  10
0.800000
  20
-12.100002
  30
0.000000
  0
VERTEX
  8
Standard
  62
5
  10
0.550000
  20
-12.225002
  30
0.000000
  0
SEQEND
  8
Standard
  62
5
  0
POLYLINE
  8
Standard
  62
5
  66
1
  70
0
  0
VERTEX
  8
Standard
  62
5
  10
0.550000
  20
-12.225002
  30
0.000000
  0
VERTEX
  8
Standard
  62
5
  10
0.550000
  20
-11.975002
  30
0.000000
  0
SEQEND
  8
Standard
  62
5
  0
POLYLINE
  8
Standard
  62
5
  66
1
  70
0
  0
VERTEX
  8
Standard
  62
5
  10
0.550000
  20
-11.975002
  30
0.000000
  0
VERTEX
  8
Standard
  62
5
  10
0.800000
  20
-12.100002
  30
0.000000
  0
SEQEND
  8
Standard
  62
5
  0
LINE
  8
Standard
  62
5
  10
0.800000
  20
-12.225002
  30
0.000000
  11
0.800000
  21
-11.975002
  31
0.000000
  0
LINE
  8
Standard
  62
5
  10
0.800000
  20
-12.100002
  30
0.000000
  11
1.000000
  21
-12.100002
  31
0.000000
  0
LINE
  8
Standard
  62
5
  10
0.350000
  20
-12.100002
  30
0.000000
  11
0.550000
  21
-12.100002
  31
0.000000
  0
POLYLINE
  8
Standard
  62
5
  66
1
  70
0
  0
VERTEX
  8
Standard
  62
5
  10
0.550000
  20
-11.700003
  30
0.000000
  0
VERTEX
  8
Standard
  62
5
  10
0.800000
  20
-11.575003
  30
0.000000
  0
SEQEND
  8
Standard
  62
5
  0
POLYLINE
  8
Standard
  62
5
  66
1
  70
0
  0
VERTEX
  8
Standard
  62
5
  10
0.800000
  20
-11.575003
  30
0.000000
  0
VERTEX
  8
Standard
  62
5
  10
0.800000
  20
-11.825003
  30
0.000000
  0
SEQEND
  8
Standard
  62
5
  0
POLYLINE
  8
Standard
  62
5
  66
1
  70
0
  0
VERTEX
  8
Standard
  62
5
  10
0.800000
  20
-11.825003
  30
0.000000
  0
VERTEX
  8
Standard
  62
5
  10
0.550000
  20
-11.700003
  30
0.000000
  0
SEQEND
  8
Standard
  62
5
  0
LINE
  8
Standard
  62
5
  10
0.550000
  20
-11.575003
  30
0.000000
  11
0.550000
  21
-11.825003
  31
0.000000
  0
LINE
  8
Standard
  62
5
  10
0.550000
  20
-11.700003
  30
0.000000
  11
0.349999
  21
-11.700003
  31
0.000000
  0
LINE
  8
Standard
  62
5
  10
0.999999
  20
-11.700003
  30
0.000000
  11
0.800000
  21
-11.700003
  31
0.000000
  0
LINE
  8
Standard
  62
5
  10
1.000000
  20
-12.100002
  30
0.000000
  11
0.999999
  21
-11.700003
  31
0.000000
  0
POLYLINE
  8
Standard
  62
5
  66
1
  70
0
  0
VERTEX
  8
Standard
  62
5
  10
0.800000
  20
-13.100002
  30
0.000000
  0
VERTEX
  8
Standard
  62
5
  10
0.550000
  20
-13.225002
  30
0.000000
  0
SEQEND
  8
Standard
  62
5
  0
POLYLINE
  8
Standard
  62
5
  66
1
  70
0
  0
VERTEX
  8
Standard
  62
5
  10
0.550000
  20
-13.225002
  30
0.000000
  0
VERTEX
  8
Standard
  62
5
  10
0.550000
  20
-12.975002
  30
0.000000
  0
SEQEND
  8
Standard
  62
5
  0
POLYLINE
  8
Standard
  62
5
  66
1
  70
0
  0
VERTEX
  8
Standard
  62
5
  10
0.550000
  20
-12.975002
  30
0.000000
  0
VERTEX
  8
Standard
  62
5
  10
0.800000
  20
-13.100002
  30
0.000000
  0
SEQEND
  8
Standard
  62
5
  0
LINE
  8
Standard
  62
5
  10
0.800000
  20
-13.225002
  30
0.000000
  11
0.800000
  21
-12.975002
  31
0.000000
  0
LINE
  8
Standard
  62
5
  10
0.800000
  20
-13.100002
  30
0.000000
  11
1.000000
  21
-13.100002
  31
0.000000
  0
LINE
  8
Standard
  62
5
  10
0.350000
  20
-13.100002
  30
0.000000
  11
0.550000
  21
-13.100002
  31
0.000000
  0
POLYLINE
  8
Standard
  62
5
  66
1
  70
0
  0
VERTEX
  8
Standard
  62
5
  10
0.550000
  20
-12.700003
  30
0.000000
  0
VERTEX
  8
Standard
  62
5
  10
0.800000
  20
-12.575003
  30
0.000000
  0
SEQEND
  8
Standard
  62
5
  0
POLYLINE
  8
Standard
  62
5
  66
1
  70
0
  0
VERTEX
  8
Standard
  62
5
  10
0.800000
  20
-12.575003
  30
0.000000
  0
VERTEX
  8
Standard
  62
5
  10
0.800000
  20
-12.825003
  30
0.000000
  0
SEQEND
  8
Standard
  62
5
  0
POLYLINE
  8
Standard
  62
5
  66
1
  70
0
  0
VERTEX
  8
Standard
  62
5
  10
0.800000
  20
-12.825003
  30
0.000000
  0
VERTEX
  8
Standard
  62
5
  10
0.550000
  20
-12.700003
  30
0.000000
  0
SEQEND
  8
Standard
  62
5
  0
LINE
  8
Standard
  62
5
  10
0.550000
  20
-12.575003
  30
0.000000
  11
0.550000
  21
-12.825003
  31
0.000000
  0
LINE
  8
Standard
  62
5
  10
0.550000
  20
-12.700003
  30
0.000000
  11
0.349999
  21
-12.700003
  31
0.000000
  0
LINE
  8
Standard
  62
5
  10
0.999999
  20
-12.700003
  30
0.000000
  11
0.800000
  21
-12.700003
  31
0.000000
  0
LINE
  8
Standard
  62
5
  10
1.000000
  20
-13.100002
  30
0.000000
  11
0.999999
  21
-12.700003
  31
0.000000
  0
POLYLINE
  8
Standard
  62
5
  66
1
  70
0
  0
VERTEX
  8
Standard
  62
5
  10
0.800000
  20
-14.100001
  30
0.000000
  0
VERTEX
  8
Standard
  62
5
  10
0.550000
  20
-14.225001
  30
0.000000
  0
SEQEND
  8
Standard
  62
5
  0
POLYLINE
  8
Standard
  62
5
  66
1
  70
0
  0
VERTEX
  8
Standard
  62
5
  10
0.550000
  20
-14.225001
  30
0.000000
  0
VERTEX
  8
Standard
  62
5
  10
0.550000
  20
-13.975001
  30
0.000000
  0
SEQEND
  8
Standard
  62
5
  0
POLYLINE
  8
Standard
  62
5
  66
1
  70
0
  0
VERTEX
  8
Standard
  62
5
  10
0.550000
  20
-13.975001
  30
0.000000
  0
VERTEX
  8
Standard
  62
5
  10
0.800000
  20
-14.100001
  30
0.000000
  0
SEQEND
  8
Standard
  62
5
  0
LINE
  8
Standard
  62
5
  10
0.800000
  20
-14.225001
  30
0.000000
  11
0.800000
  21
-13.975001
  31
0.000000
  0
LINE
  8
Standard
  62
5
  10
0.800000
  20
-14.100001
  30
0.000000
  11
1.000000
  21
-14.100001
  31
0.000000
  0
LINE
  8
Standard
  62
5
  10
0.350000
  20
-14.100001
  30
0.000000
  11
0.550000
  21
-14.100001
  31
0.000000
  0
POLYLINE
  8
Standard
  62
5
  66
1
  70
0
  0
VERTEX
  8
Standard
  62
5
  10
0.550000
  20
-13.700002
  30
0.000000
  0
VERTEX
  8
Standard
  62
5
  10
0.800000
  20
-13.575002
  30
0.000000
  0
SEQEND
  8
Standard
  62
5
  0
POLYLINE
  8
Standard
  62
5
  66
1
  70
0
  0
VERTEX
  8
Standard
  62
5
  10
0.800000
  20
-13.575002
  30
0.000000
  0
VERTEX
  8
Standard
  62
5
  10
0.800000
  20
-13.825002
  30
0.000000
  0
SEQEND
  8
Standard
  62
5
  0
POLYLINE
  8
Standard
  62
5
  66
1
  70
0
  0
VERTEX
  8
Standard
  62
5
  10
0.800000
  20
-13.825002
  30
0.000000
  0
VERTEX
  8
Standard
  62
5
  10
0.550000
  20
-13.700002
  30
0.000000
  0
SEQEND
  8
Standard
  62
5
  0
LINE
  8
Standard
  62
5
  10
0.550000
  20
-13.575002
  30
0.000000
  11
0.550000
  21
-13.825002
  31
0.000000
  0
LINE
  8
Standard
  62
5
  10
0.550000
  20
-13.700002
  30
0.000000
  11
0.349999
  21
-13.700002
  31
0.000000
  0
LINE
  8
Standard
  62
5
  10
0.999999
  20
-13.700002
  30
0.000000
  11
0.800000
  21
-13.700002
  31
0.000000
  0
LINE
  8
Standard
  62
5
  10
1.000000
  20
-14.100001
  30
0.000000
  11
0.999999
  21
-13.700002
  31
0.000000
  0
POLYLINE
  8
Standard
  62
5
  66
1
  70
0
  0
VERTEX
  8
Standard
  62
5
  10
0.800000
  20
-15.100001
  30
0.000000
  0
VERTEX
  8
Standard
  62
5
  10
0.550000
  20
-15.225001
  30
0.000000
  0
SEQEND
  8
Standard
  62
5
  0
POLYLINE
  8
Standard
  62
5
  66
1
  70
0
  0
VERTEX
  8
Standard
  62
5
  10
0.550000
  20
-15.225001
  30
0.000000
  0
VERTEX
  8
Standard
  62
5
  10
0.550000
  20
-14.975001
  30
0.000000
  0
SEQEND
  8
Standard
  62
5
  0
POLYLINE
  8
Standard
  62
5
  66
1
  70
0
  0
VERTEX
  8
Standard
  62
5
  10
0.550000
  20
-14.975001
  30
0.000000
  0
VERTEX
  8
Standard
  62
5
  10
0.800000
  20
-15.100001
  30
0.000000
  0
SEQEND
  8
Standard
  62
5
  0
LINE
  8
Standard
  62
5
  10
0.800000
  20
-15.225001
  30
0.000000
  11
0.800000
  21
-14.975001
  31
0.000000
  0
LINE
  8
Standard
  62
5
  10
0.800000
  20
-15.100001
  30
0.000000
  11
1.000000
  21
-15.100001
  31
0.000000
  0
LINE
  8
Standard
  62
5
  10
0.350000
  20
-15.100001
  30
0.000000
  11
0.550000
  21
-15.100001
  31
0.000000
  0
POLYLINE
  8
Standard
  62
5
  66
1
  70
0
  0
VERTEX
  8
Standard
  62
5
  10
0.550000
  20
-14.700002
  30
0.000000
  0
VERTEX
  8
Standard
  62
5
  10
0.800000
  20
-14.575002
  30
0.000000
  0
SEQEND
  8
Standard
  62
5
  0
POLYLINE
  8
Standard
  62
5
  66
1
  70
0
  0
VERTEX
  8
Standard
  62
5
  10
0.800000
  20
-14.575002
  30
0.000000
  0
VERTEX
  8
Standard
  62
5
  10
0.800000
  20
-14.825002
  30
0.000000
  0
SEQEND
  8
Standard
  62
5
  0
POLYLINE
  8
Standard
  62
5
  66
1
  70
0
  0
VERTEX
  8
Standard
  62
5
  10
0.800000
  20
-14.825002
  30
0.000000
  0
VERTEX
  8
Standard
  62
5
  10
0.550000
  20
-14.700002
  30
0.000000
  0
SEQEND
  8
Standard
  62
5
  0
LINE
  8
Standard
  62
5
  10
0.550000
  20
-14.575002
  30
0.000000
  11
0.550000
  21
-14.825002
  31
0.000000
  0
LINE
  8
Standard
  62
5
  10
0.550000
  20
-14.700002
  30
0.000000
  11
0.349999
  21
-14.700002
  31
0.000000
  0
LINE
  8
Standard
  62
5
  10
0.999999
  20
-14.700002
  30
0.000000
  11
0.800000
  21
-14.700002
  31
0.000000
  0
LINE
  8
Standard
  62
5
  10
1.000000
  20
-15.100001
  30
0.000000
  11
0.999999
  21
-14.700002
  31
0.000000
  0
LINE
  8
Standard
  62
0
  10
-0.650001
  20
-14.700002
  30
0.000000
  11
0.349999
  21
-14.700002
  31
0.000000
  0
LINE
  8
Standard
  62
0
  10
-0.650001
  20
-13.700002
  30
0.000000
  11
0.349999
  21
-13.700002
  31
0.000000
  0
LINE
  8
Standard
  62
0
  10
-0.650001
  20
-12.700003
  30
0.000000
  11
0.349999
  21
-12.700003
  31
0.000000
  0
LINE
  8
Standard
  62
0
  10
-1.250001
  20
-12.100002
  30
0.000000
  11
-1.250001
  21
-15.100001
  31
0.000000
  0
TEXT
  8
Standard
  62
0
  10
4.175034
  20
-15.178664
  30
0.000000
  40
0.180000
  1
XEN
  7
STANDARD
  0
TEXT
  8
Standard
  62
0
  10
4.175034
  20
-14.178664
  30
0.000000
  40
0.180000
  1
YEN
  7
STANDARD
  0
TEXT
  8
Standard
  62
0
  10
4.175034
  20
-13.178664
  30
0.000000
  40
0.180000
  1
ZEN
  7
STANDARD
  0
TEXT
  8
Standard
  62
0
  10
4.175034
  20
-12.178664
  30
0.000000
  40
0.180000
  1
WEN
  7
STANDARD
  0
LINE
  8
Standard
  62
0
  10
-0.650001
  20
-11.700003
  30
0.000000
  11
0.349999
  21
-11.700003
  31
0.000000
  0
ARC
  8
Standard
  62
0
  10
-0.650001
  20
-12.100002
  30
0.000000
  40
0.050000
  50
0.000000
  51
180.000000
  0
LINE
  8
Standard
  62
0
  10
-1.250001
  20
-12.100002
  30
0.000000
  11
-0.700001
  21
-12.100002
  31
0.000000
  0
LINE
  8
Standard
  62
0
  10
-0.600001
  20
-12.100002
  30
0.000000
  11
0.350000
  21
-12.100002
  31
0.000000
  0
ARC
  8
Standard
  62
0
  10
-0.650001
  20
-13.100002
  30
0.000000
  40
0.050000
  50
0.000000
  51
180.000000
  0
LINE
  8
Standard
  62
0
  10
-1.250001
  20
-13.100002
  30
0.000000
  11
-0.700001
  21
-13.100002
  31
0.000000
  0
LINE
  8
Standard
  62
0
  10
-0.600001
  20
-13.100002
  30
0.000000
  11
0.350000
  21
-13.100002
  31
0.000000
  0
ARC
  8
Standard
  62
0
  10
-0.650001
  20
-14.100001
  30
0.000000
  40
0.050000
  50
0.000000
  51
180.000000
  0
LINE
  8
Standard
  62
0
  10
-1.250001
  20
-14.100001
  30
0.000000
  11
-0.700001
  21
-14.100001
  31
0.000000
  0
LINE
  8
Standard
  62
0
  10
-0.600001
  20
-14.100001
  30
0.000000
  11
0.350000
  21
-14.100001
  31
0.000000
  0
CIRCLE
  8
Standard
  62
0
  10
4.000000
  20
-11.100001
  30
0.000000
  40
0.050000
  0
TEXT
  8
Standard
  62
0
  10
4.175034
  20
-11.178664
  30
0.000000
  40
0.180000
  1
AMPDIS
  7
STANDARD
  0
LINE
  8
Standard
  62
0
  10
-0.650001
  20
-11.100001
  30
0.000000
  11
4.000000
  21
-11.100001
  31
0.000000
  0
LINE
  8
Standard
  62
0
  10
-0.650001
  20
-11.100001
  30
0.000000
  11
-0.650001
  21
-14.700002
  31
0.000000
  0
LINE
  8
Standard
  62
0
  10
-1.250001
  20
-15.100001
  30
0.000000
  11
0.350000
  21
-15.100001
  31
0.000000
  0
LINE
  8
Standard
  62
0
  10
6.000000
  20
-12.100002
  30
0.000000
  11
6.000000
  21
-15.100001
  31
0.000000
  0
TEXT
  8
Standard
  62
0
  10
6.175034
  20
-11.178664
  30
0.000000
  40
0.180000
  1
FROM DISABLE BUTTON (N.O.)
  7
STANDARD
  0
TEXT
  8
Standard
  62
0
  10
4.175034
  20
-12.478664
  30
0.000000
  40
0.180000
  1
(17)
  7
STANDARD
  0
TEXT
  8
Standard
  62
0
  10
4.175034
  20
-13.478664
  30
0.000000
  40
0.180000
  1
(18)
  7
STANDARD
  0
TEXT
  8
Standard
  62
0
  10
4.175034
  20
-14.478664
  30
0.000000
  40
0.180000
  1
(19)
  7
STANDARD
  0
TEXT
  8
Standard
  62
0
  10
4.175034
  20
-15.478663
  30
0.000000
  40
0.180000
  1
(20)
  7
STANDARD
  0
TEXT
  8
Standard
  62
0
  10
6.175034
  20
-13.138664
  30
0.000000
  40
0.180000
  1
ENABLE LINES
  7
STANDARD
  0
TEXT
  8
Standard
  62
0
  10
6.175034
  20
-13.408665
  30
0.000000
  40
0.180000
  1
FROM GECKODRIVES
  7
STANDARD
  0
TEXT
  8
Standard
  62
0
  10
6.175034
  20
-13.678665
  30
0.000000
  40
0.180000
  1
G320/340 PIN 5
  7
STANDARD
  0
TEXT
  8
Standard
  62
0
  10
4.175034
  20
-11.478664
  30
0.000000
  40
0.180000
  1
(14)
  7
STANDARD
  0
CIRCLE
  8
Standard
  62
0
  10
4.000000
  20
-10.100001
  30
0.000000
  40
0.050000
  0
TEXT
  8
Standard
  62
0
  10
4.175034
  20
-10.178664
  30
0.000000
  40
0.180000
  1
AMPEN
  7
STANDARD
  0
TEXT
  8
Standard
  62
0
  10
6.175034
  20
-10.178664
  30
0.000000
  40
0.180000
  1
FROM PLC Y7 (N.O.)
  7
STANDARD
  0
TEXT
  8
Standard
  62
0
  10
0.376132
  20
-15.586432
  30
0.000000
  40
0.180000
  1
1N914 X 8
  7
STANDARD
  0
CIRCLE
  8
Standard
  62
0
  10
4.000000
  20
-9.000001
  30
0.000000
  40
0.050000
  0
TEXT
  8
Standard
  62
0
  10
4.175034
  20
-9.078664
  30
0.000000
  40
0.180000
  1
GND EXT
  7
STANDARD
  0
TEXT
  8
Standard
  62
0
  10
4.175034
  20
-9.378664
  30
0.000000
  40
0.180000
  1
(15)
  7
STANDARD
  0
LINE
  8
Standard
  62
0
  10
2.000000
  20
-8.000001
  30
0.000000
  11
2.000000
  21
-9.000001
  31
0.000000
  0
LINE
  8
Standard
  62
0
  10
2.000000
  20
-9.000001
  30
0.000000
  11
4.000000
  21
-9.000001
  31
0.000000
  0
LINE
  8
Standard
  62
0
  10
-4.500001
  20
-10.100001
  30
0.000000
  11
4.000000
  21
-10.100001
  31
0.000000
  0
TEXT
  8
Standard
  62
0
  10
6.175034
  20
-8.808663
  30
0.000000
  40
0.180000
  1
RETURN PATH FOR 
  7
STANDARD
  0
TEXT
  8
Standard
  62
0
  10
6.175034
  20
-9.078664
  30
0.000000
  40
0.180000
  1
AMPEN (13), AMPDIS (14)
  7
STANDARD
  0
TEXT
  8
Standard
  62
0
  10
4.175034
  20
-10.478664
  30
0.000000
  40
0.180000
  1
(13)
  7
STANDARD
  0
LINE
  8
Standard
  62
5
  10
-4.800000
  20
-11.600004
  30
0.000000
  11
-4.200002
  21
-11.600004
  31
0.000000
  0
LINE
  8
Standard
  62
5
  10
-4.399999
  20
-11.600004
  30
0.000000
  11
-4.099999
  21
-12.100008
  31
0.000000
  0
LINE
  8
Standard
  62
5
  10
-4.599996
  20
-11.600004
  30
0.000000
  11
-4.719999
  21
-11.800005
  31
0.000000
  0
LINE
  8
Standard
  62
5
  10
-4.840002
  20
-12.000006
  30
0.000000
  11
-4.900003
  21
-12.100004
  31
0.000000
  0
POLYLINE
  8
Standard
  62
5
  66
1
  70
0
  0
VERTEX
  8
Standard
  62
5
  10
-4.719998
  20
-11.800007
  30
0.000000
  0
VERTEX
  8
Standard
  62
5
  10
-4.942940
  20
-11.938242
  30
0.000000
  0
SEQEND
  8
Standard
  62
5
  0
POLYLINE
  8
Standard
  62
5
  66
1
  70
0
  0
VERTEX
  8
Standard
  62
5
  10
-4.942940
  20
-11.938242
  30
0.000000
  0
VERTEX
  8
Standard
  62
5
  10
-4.737061
  20
-12.061775
  30
0.000000
  0
SEQEND
  8
Standard
  62
5
  0
POLYLINE
  8
Standard
  62
5
  66
1
  70
0
  0
VERTEX
  8
Standard
  62
5
  10
-4.737061
  20
-12.061775
  30
0.000000
  0
VERTEX
  8
Standard
  62
5
  10
-4.719998
  20
-11.800007
  30
0.000000
  0
SEQEND
  8
Standard
  62
5
  0
LINE
  8
Standard
  62
0
  10
-4.400002
  20
-11.350004
  30
0.000000
  11
-4.600003
  21
-11.250002
  31
0.000000
  0
LINE
  8
Standard
  62
0
  10
-4.600003
  20
-11.250002
  30
0.000000
  11
-4.400002
  21
-11.150003
  31
0.000000
  0
LINE
  8
Standard
  62
0
  10
-4.400002
  20
-11.150003
  30
0.000000
  11
-4.600003
  21
-11.050005
  31
0.000000
  0
LINE
  8
Standard
  62
0
  10
-4.600003
  20
-11.050005
  30
0.000000
  11
-4.400002
  21
-10.950003
  31
0.000000
  0
LINE
  8
Standard
  62
0
  10
-4.400002
  20
-10.950003
  30
0.000000
  11
-4.600003
  21
-10.850004
  31
0.000000
  0
LINE
  8
Standard
  62
0
  10
-4.500001
  20
-11.400003
  30
0.000000
  11
-4.400002
  21
-11.350004
  31
0.000000
  0
LINE
  8
Standard
  62
0
  10
-4.600003
  20
-10.850004
  30
0.000000
  11
-4.500001
  21
-10.800005
  31
0.000000
  0
LINE
  8
Standard
  62
0
  10
-4.500001
  20
-10.800005
  30
0.000000
  11
-4.500001
  21
-10.600004
  31
0.000000
  0
LINE
  8
Standard
  62
0
  10
-4.500001
  20
-11.400003
  30
0.000000
  11
-4.500001
  21
-11.600004
  31
0.000000
  0
TEXT
  8
Standard
  62
0
  10
-4.152871
  20
-11.095079
  30
0.000000
  40
0.180000
  1
10K
  7
STANDARD
  0
TEXT
  8
Standard
  62
0
  10
-4.120278
  20
-11.909903
  30
0.000000
  40
0.180000
  1
Q2 2907
  7
STANDARD
  0
LINE
  8
Standard
  62
0
  10
-1.250001
  20
-12.100002
  30
0.000000
  11
-4.099999
  21
-12.100008
  31
0.000000
  0
LINE
  8
Standard
  62
0
  10
-4.900003
  20
-12.100004
  30
0.000000
  11
-7.999999
  21
-12.100004
  31
0.000000
  0
LINE
  8
Standard
  62
0
  10
-4.500001
  20
-10.100001
  30
0.000000
  11
-4.500001
  21
-10.600004
  31
0.000000
  0
LINE
  8
Standard
  62
0
  10
-4.375000
  20
-15.000003
  30
0.000000
  11
-4.475003
  21
-15.200004
  31
0.000000
  0
LINE
  8
Standard
  62
0
  10
-4.475003
  20
-15.200004
  30
0.000000
  11
-4.575002
  21
-15.000003
  31
0.000000
  0
LINE
  8
Standard
  62
0
  10
-4.575002
  20
-15.000003
  30
0.000000
  11
-4.675001
  21
-15.200004
  31
0.000000
  0
LINE
  8
Standard
  62
0
  10
-4.675001
  20
-15.200004
  30
0.000000
  11
-4.775003
  21
-15.000003
  31
0.000000
  0
LINE
  8
Standard
  62
0
  10
-4.775003
  20
-15.000003
  30
0.000000
  11
-4.875001
  21
-15.200004
  31
0.000000
  0
LINE
  8
Standard
  62
0
  10
-4.325001
  20
-15.100001
  30
0.000000
  11
-4.375000
  21
-15.000003
  31
0.000000
  0
LINE
  8
Standard
  62
0
  10
-4.875001
  20
-15.200004
  30
0.000000
  11
-4.925001
  21
-15.100001
  31
0.000000
  0
LINE
  8
Standard
  62
0
  10
-4.925001
  20
-15.100001
  30
0.000000
  11
-8.000000
  21
-15.100001
  31
0.000000
  0
LINE
  8
Standard
  62
0
  10
-1.250001
  20
-15.100001
  30
0.000000
  11
-4.325001
  21
-15.100001
  31
0.000000
  0
TEXT
  8
Standard
  62
0
  10
-4.743487
  20
-15.524543
  30
0.000000
  40
0.180000
  1
1K
  7
STANDARD
  0
LINE
  8
Standard
  62
0
  10
-7.999999
  20
-7.000001
  30
0.000000
  11
-7.999999
  21
-16.600002
  31
0.000000
  0
LINE
  8
Standard
  62
0
  10
-8.700000
  20
-5.500000
  30
0.000000
  11
-8.700000
  21
-17.000002
  31
0.000000
  0
LINE
  8
Standard
  62
0
  10
-4.500001
  20
-10.100001
  30
0.000000
  11
-5.171837
  21
-10.100001
  31
0.000000
  0
LINE
  8
Standard
  62
0
  10
-5.421837
  20
-10.000003
  30
0.000000
  11
-5.521839
  21
-10.200004
  31
0.000000
  0
LINE
  8
Standard
  62
0
  10
-5.521839
  20
-10.200004
  30
0.000000
  11
-5.621839
  21
-10.000003
  31
0.000000
  0
LINE
  8
Standard
  62
0
  10
-5.621839
  20
-10.000003
  30
0.000000
  11
-5.721837
  21
-10.200004
  31
0.000000
  0
LINE
  8
Standard
  62
0
  10
-5.721837
  20
-10.200004
  30
0.000000
  11
-5.821839
  21
-10.000003
  31
0.000000
  0
LINE
  8
Standard
  62
0
  10
-5.821839
  20
-10.000003
  30
0.000000
  11
-5.921838
  21
-10.200004
  31
0.000000
  0
LINE
  8
Standard
  62
0
  10
-5.371838
  20
-10.100001
  30
0.000000
  11
-5.421837
  21
-10.000003
  31
0.000000
  0
LINE
  8
Standard
  62
0
  10
-5.921838
  20
-10.200004
  30
0.000000
  11
-5.971837
  21
-10.100001
  31
0.000000
  0
LINE
  8
Standard
  62
0
  10
-5.371838
  20
-10.100001
  30
0.000000
  11
-5.171837
  21
-10.100001
  31
0.000000
  0
LINE
  8
Standard
  62
0
  10
-5.971837
  20
-10.100001
  30
0.000000
  11
-7.999999
  21
-10.100001
  31
0.000000
  0
TEXT
  8
Standard
  62
0
  10
-5.764499
  20
-10.627737
  30
0.000000
  40
0.180000
  1
1K
  7
STANDARD
  0
ARC
  8
Standard
  62
0
  10
-7.999999
  20
-8.000001
  30
0.000000
  40
0.050000
  50
0.000000
  51
180.000000
  0
LINE
  8
Standard
  62
0
  10
-8.700000
  20
-8.000001
  30
0.000000
  11
-8.049999
  21
-8.000001
  31
0.000000
  0
LINE
  8
Standard
  62
0
  10
-7.949999
  20
-8.000001
  30
0.000000
  11
4.000000
  21
-8.000001
  31
0.000000
  0
ENDSEC
  0
EOF
