  0
SECTION
  2
HEADER
  9
$ACADVER
  1
AC1012
  9
$DWGCODEPAGE
  3
ansi_1252
  9
$INSBASE
 10
0.0
 20
0.0
 30
0.0
  9
$EXTMIN
 10
-5.99794
 20
-3.984236
 30
0.0
  9
$EXTMAX
 10
6.397114
 20
5.828794
 30
0.0
  9
$LIMMIN
 10
-10.922814
 20
-5.802023
  9
$LIMMAX
 10
13.425067
 20
6.835964
  9
$ORTHOMODE
 70
     0
  9
$REGENMODE
 70
     1
  9
$FILLMODE
 70
     1
  9
$QTEXTMODE
 70
     0
  9
$MIRRTEXT
 70
     1
  9
$DRAGMODE
 70
     2
  9
$LTSCALE
 40
1.0
  9
$OSMODE
 70
    37
  9
$ATTMODE
 70
     1
  9
$TEXTSIZE
 40
0.15
  9
$TRACEWID
 40
0.05
  9
$TEXTSTYLE
  7
STANDARD
  9
$CLAYER
  8
0
  9
$CELTYPE
  6
BYLAYER
  9
$CECOLOR
 62
   256
  9
$CELTSCALE
 40
1.0
  9
$DELOBJ
 70
     1
  9
$DISPSILH
 70
     0
  9
$DIMSCALE
 40
1.0
  9
$DIMASZ
 40
0.25
  9
$DIMEXO
 40
0.05
  9
$DIMDLI
 40
0.38
  9
$DIMRND
 40
0.0
  9
$DIMDLE
 40
0.0
  9
$DIMEXE
 40
0.06
  9
$DIMTP
 40
0.0
  9
$DIMTM
 40
0.0
  9
$DIMTXT
 40
1.0
  9
$DIMCEN
 40
0.09
  9
$DIMTSZ
 40
0.0
  9
$DIMTOL
 70
     0
  9
$DIMLIM
 70
     0
  9
$DIMTIH
 70
     1
  9
$DIMTOH
 70
     1
  9
$DIMSE1
 70
     0
  9
$DIMSE2
 70
     0
  9
$DIMTAD
 70
     0
  9
$DIMZIN
 70
     0
  9
$DIMBLK
  1

  9
$DIMASO
 70
     1
  9
$DIMSHO
 70
     1
  9
$DIMPOST
  1

  9
$DIMAPOST
  1

  9
$DIMALT
 70
     1
  9
$DIMALTD
 70
     2
  9
$DIMALTF
 40
25.4
  9
$DIMLFAC
 40
1.0
  9
$DIMTOFL
 70
     0
  9
$DIMTVP
 40
0.0
  9
$DIMTIX
 70
     0
  9
$DIMSOXD
 70
     0
  9
$DIMSAH
 70
     0
  9
$DIMBLK1
  1

  9
$DIMBLK2
  1

  9
$DIMSTYLE
  2
STANDARD
  9
$DIMCLRD
 70
     0
  9
$DIMCLRE
 70
     0
  9
$DIMCLRT
 70
     0
  9
$DIMTFAC
 40
1.0
  9
$DIMGAP
 40
1.0
  9
$DIMJUST
 70
     0
  9
$DIMSD1
 70
     0
  9
$DIMSD2
 70
     0
  9
$DIMTOLJ
 70
     1
  9
$DIMTZIN
 70
     0
  9
$DIMALTZ
 70
     0
  9
$DIMALTTZ
 70
     0
  9
$DIMFIT
 70
     3
  9
$DIMUPT
 70
     0
  9
$DIMUNIT
 70
     2
  9
$DIMDEC
 70
     4
  9
$DIMTDEC
 70
     4
  9
$DIMALTU
 70
     2
  9
$DIMALTTD
 70
     2
  9
$DIMTXSTY
  7
STANDARD
  9
$DIMAUNIT
 70
     0
  9
$LUNITS
 70
     2
  9
$LUPREC
 70
     4
  9
$SKETCHINC
 40
0.1
  9
$FILLETRAD
 40
0.5
  9
$AUNITS
 70
     0
  9
$AUPREC
 70
     0
  9
$MENU
  1
acad
  9
$ELEVATION
 40
0.0
  9
$PELEVATION
 40
0.0
  9
$THICKNESS
 40
0.0
  9
$LIMCHECK
 70
     0
  9
$BLIPMODE
 70
     1
  9
$CHAMFERA
 40
0.0
  9
$CHAMFERB
 40
0.0
  9
$CHAMFERC
 40
0.0
  9
$CHAMFERD
 40
0.0
  9
$SKPOLY
 70
     0
  9
$TDCREATE
 40
2450822.363822222
  9
$TDUPDATE
 40
2451573.331924074
  9
$TDINDWG
 40
22.2133462963
  9
$TDUSRTIMER
 40
22.2133462963
  9
$USRTIMER
 70
     1
  9
$ANGBASE
 50
0.0
  9
$ANGDIR
 70
     0
  9
$PDMODE
 70
     0
  9
$PDSIZE
 40
0.0
  9
$PLINEWID
 40
0.0
  9
$COORDS
 70
     1
  9
$SPLFRAME
 70
     0
  9
$SPLINETYPE
 70
     6
  9
$SPLINESEGS
 70
     8
  9
$ATTDIA
 70
     0
  9
$ATTREQ
 70
     1
  9
$HANDLING
 70
     1
  9
$HANDSEED
  5
19A
  9
$SURFTAB1
 70
     6
  9
$SURFTAB2
 70
     6
  9
$SURFTYPE
 70
     6
  9
$SURFU
 70
     6
  9
$SURFV
 70
     6
  9
$UCSNAME
  2

  9
$UCSORG
 10
0.0
 20
0.0
 30
0.0
  9
$UCSXDIR
 10
1.0
 20
0.0
 30
0.0
  9
$UCSYDIR
 10
0.0
 20
1.0
 30
0.0
  9
$PUCSNAME
  2

  9
$PUCSORG
 10
0.0
 20
0.0
 30
0.0
  9
$PUCSXDIR
 10
1.0
 20
0.0
 30
0.0
  9
$PUCSYDIR
 10
0.0
 20
1.0
 30
0.0
  9
$USERI1
 70
     0
  9
$USERI2
 70
     0
  9
$USERI3
 70
     0
  9
$USERI4
 70
     0
  9
$USERI5
 70
     0
  9
$USERR1
 40
0.0
  9
$USERR2
 40
0.0
  9
$USERR3
 40
0.0
  9
$USERR4
 40
0.0
  9
$USERR5
 40
0.0
  9
$WORLDVIEW
 70
     1
  9
$SHADEDGE
 70
     3
  9
$SHADEDIF
 70
    70
  9
$TILEMODE
 70
     1
  9
$MAXACTVP
 70
    16
  9
$PINSBASE
 10
0.0
 20
0.0
 30
0.0
  9
$PLIMCHECK
 70
     0
  9
$PEXTMIN
 10
1.000000E+20
 20
1.000000E+20
 30
1.000000E+20
  9
$PEXTMAX
 10
-1.000000E+20
 20
-1.000000E+20
 30
-1.000000E+20
  9
$PLIMMIN
 10
0.0
 20
0.0
  9
$PLIMMAX
 10
12.0
 20
9.0
  9
$UNITMODE
 70
     0
  9
$VISRETAIN
 70
     0
  9
$PLINEGEN
 70
     0
  9
$PSLTSCALE
 70
     1
  9
$TREEDEPTH
 70
  3020
  9
$PICKSTYLE
 70
     1
  9
$CMLSTYLE
  2
STANDARD
  9
$CMLJUST
 70
     0
  9
$CMLSCALE
 40
1.0
  9
$SAVEIMAGES
 70
     0
  0
ENDSEC
  0
SECTION
  2
CLASSES
  0
ENDSEC
  0
SECTION
  2
TABLES
  0
TABLE
  2
VPORT
  5
13
100
AcDbSymbolTable
 70
     2
  0
VPORT
  5
199
100
AcDbSymbolTableRecord
100
AcDbViewportTableRecord
  2
*ACTIVE
 70
     0
 10
0.0
 20
0.0
 11
1.0
 21
1.0
 12
1.622301
 22
0.51697
 13
0.0
 23
0.0
 14
1.0
 24
1.0
 15
0.0
 25
0.0
 16
0.0
 26
0.0
 36
1.0
 17
0.0
 27
0.0
 37
0.0
 40
13.434283
 41
1.957576
 42
50.0
 43
0.0
 44
0.0
 50
0.0
 51
0.0
 71
     0
 72
   100
 73
     1
 74
     1
 75
     0
 76
     0
 77
     0
 78
     0
  0
ENDTAB
  0
TABLE
  2
LTYPE
  5
F
100
AcDbSymbolTable
 70
     3
  0
LTYPE
  5
10
100
AcDbSymbolTableRecord
100
AcDbLinetypeTableRecord
  2
BYBLOCK
 70
     0
  3

 72
    65
 73
     0
 40
0.0
  0
LTYPE
  5
6
100
AcDbSymbolTableRecord
100
AcDbLinetypeTableRecord
  2
BYLAYER
 70
     0
  3

 72
    65
 73
     0
 40
0.0
  0
LTYPE
  5
5
100
AcDbSymbolTableRecord
100
AcDbLinetypeTableRecord
  2
CONTINUOUS
 70
    64
  3
Solid line
 72
    65
 73
     0
 40
0.0
  0
LTYPE
  5
4B
100
AcDbSymbolTableRecord
100
AcDbLinetypeTableRecord
  2
DASHED
 70
    64
  3
_ _ _ _ _ _ _ _ _ _ _ _ _ _ _ _
 72
    65
 73
     2
 40
0.75
 49
0.5
 74
     0
 49
-0.25
 74
     0
  0
LTYPE
  5
4F
100
AcDbSymbolTableRecord
100
AcDbLinetypeTableRecord
  2
CENTER
 70
    64
  3
__ __ __ __ __ __ __ __ __ __ __ __ __ __ __ __
 72
    65
 73
     4
 40
2.0
 49
1.25
 74
     0
 49
-0.25
 74
     0
 49
0.25
 74
     0
 49
-0.25
 74
     0
  0
ENDTAB
  0
TABLE
  2
LAYER
  5
B
100
AcDbSymbolTable
 70
     8
  0
LAYER
  5
C
100
AcDbSymbolTableRecord
100
AcDbLayerTableRecord
  2
0
 70
    64
 62
     7
  6
CONTINUOUS
  0
LAYER
  5
89
100
AcDbSymbolTableRecord
100
AcDbLayerTableRecord
  2
BEARINGS
 70
    64
 62
     2
  6
CONTINUOUS
  0
LAYER
  5
21
100
AcDbSymbolTableRecord
100
AcDbLayerTableRecord
  2
BALLSCREWS
 70
    64
 62
     4
  6
CONTINUOUS
  0
LAYER
  5
4
100
AcDbSymbolTableRecord
100
AcDbLayerTableRecord
  2
LINBEARINGZ
 70
    64
 62
    40
  6
CONTINUOUS
  0
LAYER
  5
1F
100
AcDbSymbolTableRecord
100
AcDbLayerTableRecord
  2
DIMS
 70
    64
 62
     6
  6
CONTINUOUS
  0
LAYER
  5
31
100
AcDbSymbolTableRecord
100
AcDbLayerTableRecord
  2
DEFPOINTS
 70
    64
 62
     7
  6
CONTINUOUS
  0
LAYER
  5
6C
100
AcDbSymbolTableRecord
100
AcDbLayerTableRecord
  2
SPACER
 70
    64
 62
    32
  6
CONTINUOUS
  0
LAYER
  5
5B
100
AcDbSymbolTableRecord
100
AcDbLayerTableRecord
  2
SEAL
 70
    64
 62
   190
  6
CONTINUOUS
  0
ENDTAB
  0
TABLE
  2
STYLE
  5
D
100
AcDbSymbolTable
 70
     1
  0
STYLE
  5
E
100
AcDbSymbolTableRecord
100
AcDbTextStyleTableRecord
  2
STANDARD
 70
    64
 40
0.15
 41
1.0
 50
0.0
 71
     0
 42
0.15
  3
txt
  4

  0
ENDTAB
  0
TABLE
  2
VIEW
  5
11
100
AcDbSymbolTable
 70
     0
  0
ENDTAB
  0
TABLE
  2
UCS
  5
12
100
AcDbSymbolTable
 70
     0
  0
ENDTAB
  0
TABLE
  2
APPID
  5
15
100
AcDbSymbolTable
 70
     1
  0
APPID
  5
16
100
AcDbSymbolTableRecord
100
AcDbRegAppTableRecord
  2
ACAD
 70
    64
  0
ENDTAB
  0
TABLE
  2
DIMSTYLE
  5
17
100
AcDbSymbolTable
 70
     1
  0
DIMSTYLE
105
1D
100
AcDbSymbolTableRecord
100
AcDbDimStyleTableRecord
  2
STANDARD
 70
     0
  3

  4

  5

  6

  7

 40
1.0
 41
0.18
 42
0.0625
 43
0.38
 44
0.18
 45
0.0
 46
0.0
 47
0.0
 48
0.0
140
0.18
141
0.09
142
0.0
143
25.4
144
1.0
145
0.0
146
1.0
147
0.09
 71
     0
 72
     0
 73
     1
 74
     1
 75
     0
 76
     0
 77
     0
 78
     0
170
     0
171
     2
172
     0
173
     0
174
     0
175
     0
176
     0
177
     0
178
     0
270
     2
271
     4
272
     4
273
     2
274
     2
340
E
275
     0
280
     0
281
     0
282
     0
283
     1
284
     0
285
     0
286
     0
287
     3
288
     0
  0
ENDTAB
  0
TABLE
  2
BLOCK_RECORD
  5
1
100
AcDbSymbolTable
 70
     5
  0
BLOCK_RECORD
  5
2
100
AcDbSymbolTableRecord
100
AcDbBlockTableRecord
  2
*MODEL_SPACE
  0
BLOCK_RECORD
  5
8
100
AcDbSymbolTableRecord
100
AcDbBlockTableRecord
  2
*PAPER_SPACE
  0
BLOCK_RECORD
  5
8A
100
AcDbSymbolTableRecord
100
AcDbBlockTableRecord
  2
*X0
  0
BLOCK_RECORD
  5
CF
100
AcDbSymbolTableRecord
100
AcDbBlockTableRecord
  2
*X1
  0
BLOCK_RECORD
  5
5C
100
AcDbSymbolTableRecord
100
AcDbBlockTableRecord
  2
*X2
  0
BLOCK_RECORD
  5
6D
100
AcDbSymbolTableRecord
100
AcDbBlockTableRecord
  2
*X3
  0
ENDTAB
  0
ENDSEC
  0
SECTION
  2
BLOCKS
  0
BLOCK
  5
3
100
AcDbEntity
  8
LINBEARINGZ
100
AcDbBlockBegin
  2
*MODEL_SPACE
 70
     0
 10
0.0
 20
0.0
 30
0.0
  3
*MODEL_SPACE
  1

  0
ENDBLK
  5
7
100
AcDbEntity
  8
LINBEARINGZ
100
AcDbBlockEnd
  0
BLOCK
  5
9
100
AcDbEntity
 67
     1
  8
LINBEARINGZ
100
AcDbBlockBegin
  2
*PAPER_SPACE
 70
     0
 10
0.0
 20
0.0
 30
0.0
  3
*PAPER_SPACE
  1

  0
ENDBLK
  5
A
100
AcDbEntity
 67
     1
  8
LINBEARINGZ
100
AcDbBlockEnd
  0
BLOCK
  5
96
100
AcDbEntity
  8
0
100
AcDbBlockBegin
  2
*X0
 70
    65
 10
0.0
 20
0.0
 30
0.0
  3
*X0
  1

  0
LINE
  5
8B
100
AcDbEntity
  8
0
 62
     0
100
AcDbLine
 10
28.605171
 20
-25.400109
 30
0.0
 11
29.057926
 21
-24.947354
 31
0.0
  0
LINE
  5
8C
100
AcDbEntity
  8
0
 62
     0
100
AcDbLine
 10
28.599258
 20
-25.317634
 30
0.0
 11
28.969538
 21
-24.947354
 31
0.0
  0
LINE
  5
8D
100
AcDbEntity
  8
0
 62
     0
100
AcDbLine
 10
28.599258
 20
-25.229246
 30
0.0
 11
28.881149
 21
-24.947354
 31
0.0
  0
LINE
  5
8E
100
AcDbEntity
  8
0
 62
     0
100
AcDbLine
 10
28.599258
 20
-25.140858
 30
0.0
 11
28.792761
 21
-24.947354
 31
0.0
  0
LINE
  5
8F
100
AcDbEntity
  8
0
 62
     0
100
AcDbLine
 10
28.599258
 20
-25.052469
 30
0.0
 11
28.704373
 21
-24.947354
 31
0.0
  0
LINE
  5
90
100
AcDbEntity
  8
0
 62
     0
100
AcDbLine
 10
28.599258
 20
-24.964081
 30
0.0
 11
28.615984
 21
-24.947354
 31
0.0
  0
LINE
  5
91
100
AcDbEntity
  8
0
 62
     0
100
AcDbLine
 10
28.693559
 20
-25.400109
 30
0.0
 11
29.071658
 21
-25.022011
 31
0.0
  0
LINE
  5
92
100
AcDbEntity
  8
0
 62
     0
100
AcDbLine
 10
28.781948
 20
-25.400109
 30
0.0
 11
29.071658
 21
-25.110399
 31
0.0
  0
LINE
  5
93
100
AcDbEntity
  8
0
 62
     0
100
AcDbLine
 10
28.870336
 20
-25.400109
 30
0.0
 11
29.071658
 21
-25.198788
 31
0.0
  0
LINE
  5
94
100
AcDbEntity
  8
0
 62
     0
100
AcDbLine
 10
28.958725
 20
-25.400109
 30
0.0
 11
29.071658
 21
-25.287176
 31
0.0
  0
LINE
  5
95
100
AcDbEntity
  8
0
 62
     0
100
AcDbLine
 10
29.047113
 20
-25.400109
 30
0.0
 11
29.071658
 21
-25.375564
 31
0.0
  0
ENDBLK
  5
97
100
AcDbEntity
  8
0
100
AcDbBlockEnd
  0
BLOCK
  5
DB
100
AcDbEntity
  8
0
100
AcDbBlockBegin
  2
*X1
 70
    65
 10
0.0
 20
0.0
 30
0.0
  3
*X1
  1

  0
LINE
  5
D0
100
AcDbEntity
  8
0
 62
     0
100
AcDbLine
 10
29.465973
 20
-25.400109
 30
0.0
 11
29.071658
 21
-25.005794
 31
0.0
  0
LINE
  5
D1
100
AcDbEntity
  8
0
 62
     0
100
AcDbLine
 10
29.377585
 20
-25.400109
 30
0.0
 11
29.071658
 21
-25.094182
 31
0.0
  0
LINE
  5
D2
100
AcDbEntity
  8
0
 62
     0
100
AcDbLine
 10
29.289197
 20
-25.400109
 30
0.0
 11
29.071658
 21
-25.18257
 31
0.0
  0
LINE
  5
D3
100
AcDbEntity
  8
0
 62
     0
100
AcDbLine
 10
29.200808
 20
-25.400109
 30
0.0
 11
29.071658
 21
-25.270959
 31
0.0
  0
LINE
  5
D4
100
AcDbEntity
  8
0
 62
     0
100
AcDbLine
 10
29.11242
 20
-25.400109
 30
0.0
 11
29.071658
 21
-25.359347
 31
0.0
  0
LINE
  5
D5
100
AcDbEntity
  8
0
 62
     0
100
AcDbLine
 10
29.543555
 20
-25.389303
 30
0.0
 11
29.101607
 21
-24.947354
 31
0.0
  0
LINE
  5
D6
100
AcDbEntity
  8
0
 62
     0
100
AcDbLine
 10
29.543656
 20
-25.301015
 30
0.0
 11
29.189995
 21
-24.947354
 31
0.0
  0
LINE
  5
D7
100
AcDbEntity
  8
0
 62
     0
100
AcDbLine
 10
29.543756
 20
-25.212727
 30
0.0
 11
29.278383
 21
-24.947354
 31
0.0
  0
LINE
  5
D8
100
AcDbEntity
  8
0
 62
     0
100
AcDbLine
 10
29.543856
 20
-25.124439
 30
0.0
 11
29.366772
 21
-24.947354
 31
0.0
  0
LINE
  5
D9
100
AcDbEntity
  8
0
 62
     0
100
AcDbLine
 10
29.543957
 20
-25.036151
 30
0.0
 11
29.45516
 21
-24.947354
 31
0.0
  0
LINE
  5
DA
100
AcDbEntity
  8
0
 62
     0
100
AcDbLine
 10
29.544057
 20
-24.947863
 30
0.0
 11
29.543548
 21
-24.947354
 31
0.0
  0
ENDBLK
  5
DC
100
AcDbEntity
  8
0
100
AcDbBlockEnd
  0
BLOCK
  5
69
100
AcDbEntity
  8
0
100
AcDbBlockBegin
  2
*X2
 70
    65
 10
0.0
 20
0.0
 30
0.0
  3
*X2
  1

  0
LINE
  5
5D
100
AcDbEntity
  8
0
 62
     0
100
AcDbLine
 10
28.402223
 20
-25.131854
 30
0.0
 11
28.316123
 21
-25.045754
 31
0.0
  0
LINE
  5
5E
100
AcDbEntity
  8
0
 62
     0
100
AcDbLine
 10
28.402223
 20
-25.220242
 30
0.0
 11
28.227735
 21
-25.045754
 31
0.0
  0
LINE
  5
5F
100
AcDbEntity
  8
0
 62
     0
100
AcDbLine
 10
28.395346
 20
-25.301754
 30
0.0
 11
28.139346
 21
-25.045754
 31
0.0
  0
LINE
  5
60
100
AcDbEntity
  8
0
 62
     0
100
AcDbLine
 10
28.306958
 20
-25.301754
 30
0.0
 11
28.126223
 21
-25.121019
 31
0.0
  0
LINE
  5
61
100
AcDbEntity
  8
0
 62
     0
100
AcDbLine
 10
28.21857
 20
-25.301754
 30
0.0
 11
28.126223
 21
-25.209407
 31
0.0
  0
LINE
  5
62
100
AcDbEntity
  8
0
 62
     0
100
AcDbLine
 10
28.130181
 20
-25.301754
 30
0.0
 11
28.126223
 21
-25.297796
 31
0.0
  0
LINE
  5
63
100
AcDbEntity
  8
0
 62
     0
100
AcDbLine
 10
29.80956
 20
-25.301754
 30
0.0
 11
29.740538
 21
-25.232732
 31
0.0
  0
LINE
  5
64
100
AcDbEntity
  8
0
 62
     0
100
AcDbLine
 10
29.897948
 20
-25.301754
 30
0.0
 11
29.740538
 21
-25.144344
 31
0.0
  0
LINE
  5
65
100
AcDbEntity
  8
0
 62
     0
100
AcDbLine
 10
29.986337
 20
-25.301754
 30
0.0
 11
29.740538
 21
-25.055955
 31
0.0
  0
LINE
  5
66
100
AcDbEntity
  8
0
 62
     0
100
AcDbLine
 10
30.016538
 20
-25.243567
 30
0.0
 11
29.818725
 21
-25.045754
 31
0.0
  0
LINE
  5
67
100
AcDbEntity
  8
0
 62
     0
100
AcDbLine
 10
30.016538
 20
-25.155179
 30
0.0
 11
29.907113
 21
-25.045754
 31
0.0
  0
LINE
  5
68
100
AcDbEntity
  8
0
 62
     0
100
AcDbLine
 10
30.016538
 20
-25.06679
 30
0.0
 11
29.995502
 21
-25.045754
 31
0.0
  0
ENDBLK
  5
6A
100
AcDbEntity
  8
0
100
AcDbBlockEnd
  0
BLOCK
  5
83
100
AcDbEntity
  8
0
100
AcDbBlockBegin
  2
*X3
 70
    65
 10
0.0
 20
0.0
 30
0.0
  3
*X3
  1

  0
LINE
  5
6E
100
AcDbEntity
  8
0
 62
     0
100
AcDbLine
 10
28.599258
 20
-25.328889
 30
0.0
 11
28.568165
 21
-25.297796
 31
0.0
  0
LINE
  5
6F
100
AcDbEntity
  8
0
 62
     0
100
AcDbLine
 10
28.58209
 20
-25.400109
 30
0.0
 11
28.479776
 21
-25.297796
 31
0.0
  0
LINE
  5
70
100
AcDbEntity
  8
0
 62
     0
100
AcDbLine
 10
28.493701
 20
-25.400109
 30
0.0
 11
28.391388
 21
-25.297796
 31
0.0
  0
LINE
  5
71
100
AcDbEntity
  8
0
 62
     0
100
AcDbLine
 10
28.405313
 20
-25.400109
 30
0.0
 11
28.303
 21
-25.297796
 31
0.0
  0
LINE
  5
72
100
AcDbEntity
  8
0
 62
     0
100
AcDbLine
 10
28.316925
 20
-25.400109
 30
0.0
 11
28.214611
 21
-25.297796
 31
0.0
  0
LINE
  5
73
100
AcDbEntity
  8
0
 62
     0
100
AcDbLine
 10
28.228536
 20
-25.400109
 30
0.0
 11
28.126223
 21
-25.297796
 31
0.0
  0
LINE
  5
74
100
AcDbEntity
  8
0
 62
     0
100
AcDbLine
 10
28.140148
 20
-25.400109
 30
0.0
 11
28.126223
 21
-25.386184
 31
0.0
  0
LINE
  5
75
100
AcDbEntity
  8
0
 62
     0
100
AcDbLine
 10
29.554362
 20
-25.400109
 30
0.0
 11
29.544016
 21
-25.389763
 31
0.0
  0
LINE
  5
76
100
AcDbEntity
  8
0
 62
     0
100
AcDbLine
 10
29.64275
 20
-25.400109
 30
0.0
 11
29.543857
 21
-25.301217
 31
0.0
  0
LINE
  5
77
100
AcDbEntity
  8
0
 62
     0
100
AcDbLine
 10
29.731138
 20
-25.400109
 30
0.0
 11
29.632346
 21
-25.301317
 31
0.0
  0
LINE
  5
78
100
AcDbEntity
  8
0
 62
     0
100
AcDbLine
 10
29.819527
 20
-25.400109
 30
0.0
 11
29.720835
 21
-25.301418
 31
0.0
  0
LINE
  5
79
100
AcDbEntity
  8
0
 62
     0
100
AcDbLine
 10
29.907915
 20
-25.400109
 30
0.0
 11
29.809324
 21
-25.301519
 31
0.0
  0
LINE
  5
7A
100
AcDbEntity
  8
0
 62
     0
100
AcDbLine
 10
29.55356
 20
-25.045754
 30
0.0
 11
29.544058
 21
-25.036252
 31
0.0
  0
LINE
  5
7B
100
AcDbEntity
  8
0
 62
     0
100
AcDbLine
 10
29.996303
 20
-25.400109
 30
0.0
 11
29.897813
 21
-25.301619
 31
0.0
  0
LINE
  5
7C
100
AcDbEntity
  8
0
 62
     0
100
AcDbLine
 10
29.641948
 20
-25.045754
 30
0.0
 11
29.544058
 21
-24.947864
 31
0.0
  0
LINE
  5
7D
100
AcDbEntity
  8
0
 62
     0
100
AcDbLine
 10
30.016368
 20
-25.331786
 30
0.0
 11
29.986302
 21
-25.30172
 31
0.0
  0
LINE
  5
7E
100
AcDbEntity
  8
0
 62
     0
100
AcDbLine
 10
29.730337
 20
-25.045754
 30
0.0
 11
29.631937
 21
-24.947354
 31
0.0
  0
LINE
  5
7F
100
AcDbEntity
  8
0
 62
     0
100
AcDbLine
 10
29.818725
 20
-25.045754
 30
0.0
 11
29.720325
 21
-24.947354
 31
0.0
  0
LINE
  5
80
100
AcDbEntity
  8
0
 62
     0
100
AcDbLine
 10
29.907113
 20
-25.045754
 30
0.0
 11
29.808713
 21
-24.947354
 31
0.0
  0
LINE
  5
81
100
AcDbEntity
  8
0
 62
     0
100
AcDbLine
 10
29.995502
 20
-25.045754
 30
0.0
 11
29.897102
 21
-24.947354
 31
0.0
  0
LINE
  5
82
100
AcDbEntity
  8
0
 62
     0
100
AcDbLine
 10
30.016538
 20
-24.978402
 30
0.0
 11
29.98549
 21
-24.947354
 31
0.0
  0
ENDBLK
  5
84
100
AcDbEntity
  8
0
100
AcDbBlockEnd
  0
ENDSEC
  0
SECTION
  2
ENTITIES
  0
TEXT
  5
1E
100
AcDbEntity
  8
DIMS
100
AcDbText
 10
-3.625877
 20
4.420158
 30
0.0
 40
0.32507
  1
seals: 22x35x7mm (.866x1.378x.276in)
100
AcDbText
  0
LINE
  5
20
100
AcDbEntity
  8
BALLSCREWS
100
AcDbLine
 10
-0.565354
 20
2.133612
 30
0.0
 11
-0.348819
 21
2.133612
 31
0.0
  0
LINE
  5
22
100
AcDbEntity
  8
BALLSCREWS
100
AcDbLine
 10
-0.565354
 20
1.936762
 30
0.0
 11
-0.348819
 21
1.936762
 31
0.0
  0
LINE
  5
23
100
AcDbEntity
  8
BALLSCREWS
100
AcDbLine
 10
-1.057479
 20
2.330462
 30
0.0
 11
-0.073229
 21
2.330462
 31
0.0
  0
LINE
  5
24
100
AcDbEntity
  8
BALLSCREWS
100
AcDbLine
 10
-1.057479
 20
1.739912
 30
0.0
 11
-0.073229
 21
1.739912
 31
0.0
  0
LINE
  5
25
100
AcDbEntity
  8
BALLSCREWS
100
AcDbLine
 10
-0.565354
 20
-2.425184
 30
0.0
 11
-0.348819
 21
-2.425184
 31
0.0
  0
LINE
  5
26
100
AcDbEntity
  8
BALLSCREWS
100
AcDbLine
 10
-0.565354
 20
-2.622034
 30
0.0
 11
-0.348819
 21
-2.622034
 31
0.0
  0
LINE
  5
27
100
AcDbEntity
  8
BALLSCREWS
100
AcDbLine
 10
-1.057479
 20
-2.228334
 30
0.0
 11
-0.073229
 21
-2.228334
 31
0.0
  0
LINE
  5
28
100
AcDbEntity
  8
BALLSCREWS
100
AcDbLine
 10
-1.057479
 20
-2.818884
 30
0.0
 11
-0.073229
 21
-2.818884
 31
0.0
  0
LINE
  5
35
100
AcDbEntity
  8
BALLSCREWS
100
AcDbLine
 10
-3.459604
 20
2.527312
 30
0.0
 11
-5.99794
 21
2.527312
 31
0.0
  0
LINE
  5
36
100
AcDbEntity
  8
BALLSCREWS
100
AcDbLine
 10
-3.459604
 20
1.543062
 30
0.0
 11
-5.99794
 21
1.543062
 31
0.0
  0
LINE
  5
37
100
AcDbEntity
  8
BALLSCREWS
100
AcDbLine
 10
-3.459604
 20
-2.031484
 30
0.0
 11
-5.99794
 21
-2.031484
 31
0.0
  0
LINE
  5
38
100
AcDbEntity
  8
BALLSCREWS
100
AcDbLine
 10
-3.459604
 20
-3.015734
 30
0.0
 11
-5.99794
 21
-3.015734
 31
0.0
  0
ARC
  5
39
100
AcDbEntity
  8
0
100
AcDbCircle
 10
-1.962989
 20
-3.647623
 30
0.0
 40
0.3045
100
AcDbArc
 50
0.0
 51
180.0
  0
ARC
  5
3A
100
AcDbEntity
  8
0
100
AcDbCircle
 10
-3.065349
 20
-3.647623
 30
0.0
 40
0.3045
100
AcDbArc
 50
0.0
 51
180.0
  0
LINE
  5
3B
100
AcDbEntity
  8
0
100
AcDbLine
 10
-2.760849
 20
-3.647623
 30
0.0
 11
-2.760849
 21
-3.984236
 31
0.0
  0
LINE
  5
3C
100
AcDbEntity
  8
0
100
AcDbLine
 10
-3.369849
 20
-3.647623
 30
0.0
 11
-3.369849
 21
-3.984236
 31
0.0
  0
LINE
  5
3D
100
AcDbEntity
  8
0
100
AcDbLine
 10
-2.267489
 20
-3.647623
 30
0.0
 11
-2.267489
 21
-3.984236
 31
0.0
  0
LINE
  5
3E
100
AcDbEntity
  8
0
100
AcDbLine
 10
-1.658489
 20
-3.647623
 30
0.0
 11
-1.658489
 21
-3.984236
 31
0.0
  0
CIRCLE
  5
3F
100
AcDbEntity
  8
0
100
AcDbCircle
 10
-1.962989
 20
-3.647623
 30
0.0
 40
0.203
  0
CIRCLE
  5
40
100
AcDbEntity
  8
0
100
AcDbCircle
 10
-3.065349
 20
-3.647623
 30
0.0
 40
0.203
  0
LINE
  5
41
100
AcDbEntity
  8
0
100
AcDbLine
 10
-3.369849
 20
-1.399596
 30
0.0
 11
-3.369849
 21
-1.062982
 31
0.0
  0
LINE
  5
42
100
AcDbEntity
  8
0
100
AcDbLine
 10
-2.760849
 20
-1.399596
 30
0.0
 11
-2.760849
 21
-1.062982
 31
0.0
  0
LINE
  5
43
100
AcDbEntity
  8
0
100
AcDbLine
 10
-2.267489
 20
-1.399596
 30
0.0
 11
-2.267489
 21
-1.062982
 31
0.0
  0
LINE
  5
44
100
AcDbEntity
  8
0
100
AcDbLine
 10
-1.658489
 20
-1.399596
 30
0.0
 11
-1.658489
 21
-1.062982
 31
0.0
  0
LINE
  5
45
100
AcDbEntity
  8
0
100
AcDbLine
 10
-3.369849
 20
-1.399596
 30
0.0
 11
-0.857676
 21
-1.399596
 31
0.0
  0
CIRCLE
  5
46
100
AcDbEntity
  8
0
100
AcDbCircle
 10
-3.065349
 20
-1.399596
 30
0.0
 40
0.203
  0
ARC
  5
47
100
AcDbEntity
  8
0
100
AcDbCircle
 10
-3.065349
 20
-1.399596
 30
0.0
 40
0.3045
100
AcDbArc
 50
180.0
 51
0.0
  0
CIRCLE
  5
48
100
AcDbEntity
  8
0
100
AcDbCircle
 10
-1.962989
 20
-1.399596
 30
0.0
 40
0.203
  0
ARC
  5
49
100
AcDbEntity
  8
0
100
AcDbCircle
 10
-1.962989
 20
-1.399596
 30
0.0
 40
0.3045
100
AcDbArc
 50
180.0
 51
0.0
  0
LINE
  5
4A
100
AcDbEntity
  8
0
  6
DASHED
 48
0.1
100
AcDbLine
 10
-2.760849
 20
3.120814
 30
0.0
 11
-2.760849
 21
3.495814
 31
0.0
  0
LINE
  5
4C
100
AcDbEntity
  8
0
  6
DASHED
 48
0.1
100
AcDbLine
 10
-2.862349
 20
0.57456
 30
0.0
 11
-2.862349
 21
3.120814
 31
0.0
  0
LINE
  5
4D
100
AcDbEntity
  8
0
  6
DASHED
 48
0.1
100
AcDbLine
 10
-3.369849
 20
3.120814
 30
0.0
 11
-3.369849
 21
3.495814
 31
0.0
  0
LINE
  5
4E
100
AcDbEntity
  8
0
  6
CENTER
 48
0.1
100
AcDbLine
 10
-3.065349
 20
2.035187
 30
0.0
 11
-3.065349
 21
3.495814
 31
0.0
  0
LINE
  5
50
100
AcDbEntity
  8
0
  6
DASHED
 48
0.1
100
AcDbLine
 10
-3.268349
 20
0.57456
 30
0.0
 11
-3.268349
 21
3.120814
 31
0.0
  0
LINE
  5
51
100
AcDbEntity
  8
0
  6
DASHED
 48
0.1
100
AcDbLine
 10
-3.369849
 20
3.120814
 30
0.0
 11
-2.760849
 21
3.120814
 31
0.0
  0
LINE
  5
52
100
AcDbEntity
  8
0
  6
DASHED
 48
0.1
100
AcDbLine
 10
-1.658489
 20
3.120814
 30
0.0
 11
-1.658489
 21
3.495814
 31
0.0
  0
LINE
  5
53
100
AcDbEntity
  8
0
  6
DASHED
 48
0.1
100
AcDbLine
 10
-1.759989
 20
0.57456
 30
0.0
 11
-1.759989
 21
3.120814
 31
0.0
  0
LINE
  5
54
100
AcDbEntity
  8
0
  6
DASHED
 48
0.1
100
AcDbLine
 10
-2.267489
 20
3.120814
 30
0.0
 11
-2.267489
 21
3.495814
 31
0.0
  0
LINE
  5
55
100
AcDbEntity
  8
0
  6
CENTER
 48
0.1
100
AcDbLine
 10
-1.962989
 20
2.035187
 30
0.0
 11
-1.962989
 21
3.495814
 31
0.0
  0
LINE
  5
56
100
AcDbEntity
  8
0
  6
DASHED
 48
0.1
100
AcDbLine
 10
-2.165989
 20
0.57456
 30
0.0
 11
-2.165989
 21
3.120814
 31
0.0
  0
LINE
  5
57
100
AcDbEntity
  8
0
  6
DASHED
 48
0.1
100
AcDbLine
 10
-2.267489
 20
3.120814
 30
0.0
 11
-1.658489
 21
3.120814
 31
0.0
  0
LINE
  5
58
100
AcDbEntity
  8
0
100
AcDbLine
 10
-1.319289
 20
1.035187
 30
0.0
 11
-1.569289
 21
1.035187
 31
0.0
  0
LINE
  5
59
100
AcDbEntity
  8
0
100
AcDbLine
 10
-1.319289
 20
3.035187
 30
0.0
 11
-1.569289
 21
3.035187
 31
0.0
  0
INSERT
  5
5A
100
AcDbEntity
  8
SEAL
100
AcDbBlockReference
  2
*X2
 10
-31.585827
 20
-23.699567
 30
0.0
 41
-1.0
 50
180.0
1001
ACAD
1000
HATCH
1002
{
1070
    19
1000
ANSI31
1040
0.5
1040
6.283185
1000
ASC_BOUNDS
1070
     2
1070
     1
1070
     4
1005
BF
1005
BE
1005
BD
1005
BC
1070
     1
1070
     4
1005
A5
1005
A4
1005
A3
1005
A2
1000
ASC_SEEDPOINT
1011
-20.483688
1021
19.336169
1031
0.0
1002
}
  0
INSERT
  5
6B
100
AcDbEntity
  8
SPACER
100
AcDbBlockReference
  2
*X3
 10
-31.585827
 20
-23.699567
 30
0.0
 41
-1.0
 50
180.0
1001
ACAD
1000
HATCH
1002
{
1070
    19
1000
ANSI31
1040
0.5
1040
1.570796
1000
ASC_BOUNDS
1070
     3
1070
     1
1070
     4
1005
C3
1005
C2
1005
C1
1005
C0
1070
     1
1070
     4
1005
C7
1005
C6
1005
C5
1005
C4
1070
     1
1070
     4
1005
A9
1005
A8
1005
A7
1005
A6
1000
ASC_SEEDPOINT
1011
-20.483688
1021
19.336169
1031
0.0
1002
}
  0
INSERT
  5
85
100
AcDbEntity
  8
SPACER
100
AcDbBlockReference
  2
*X3
 10
-31.585827
 20
27.769941
 30
0.0
1001
ACAD
1000
HATCH
1002
{
1070
    19
1000
ANSI31
1040
0.5
1040
1.570796
1000
ASC_BOUNDS
1070
     3
1070
     1
1070
     4
1005
CA
1005
C8
1005
E5
1005
C9
1070
     1
1070
     4
1005
E9
1005
E8
1005
E7
1005
E6
1070
     1
1070
     4
1005
AA
1005
B3
1005
B2
1005
B4
1000
ASC_SEEDPOINT
1011
-20.483688
1021
19.336169
1031
0.0
1002
}
  0
INSERT
  5
86
100
AcDbEntity
  8
SEAL
100
AcDbBlockReference
  2
*X2
 10
-31.585827
 20
27.769941
 30
0.0
1001
ACAD
1000
HATCH
1002
{
1070
    19
1000
ANSI31
1040
0.5
1040
1.570796
1000
ASC_BOUNDS
1070
     2
1070
     1
1070
     4
1005
E4
1005
E2
1005
CB
1005
E3
1070
     1
1070
     4
1005
B1
1005
B0
1005
AB
1005
AF
1000
ASC_SEEDPOINT
1011
-20.483688
1021
19.336169
1031
0.0
1002
}
  0
LINE
  5
87
100
AcDbEntity
  8
0
100
AcDbLine
 10
-2.986569
 20
1.247787
 30
0.0
 11
-1.569289
 21
1.247787
 31
0.0
  0
INSERT
  5
88
100
AcDbEntity
  8
BEARINGS
100
AcDbBlockReference
  2
*X0
 10
-31.585827
 20
-23.699567
 30
0.0
 41
-1.0
 50
180.0
1001
ACAD
1000
HATCH
1002
{
1070
    19
1000
ANSI31
1040
0.5
1040
0.0
1002
}
  0
LINE
  5
98
100
AcDbEntity
  8
BEARINGS
100
AcDbLine
 10
-2.986569
 20
1.700542
 30
0.0
 11
-2.514169
 21
1.700542
 31
0.0
1001
ACAD
1000
ASC_BOUNDS
1002
{
1070
    19
1002
}
  0
LINE
  5
99
100
AcDbEntity
  8
BEARINGS
100
AcDbLine
 10
-2.514169
 20
1.247787
 30
0.0
 11
-2.986569
 21
1.247787
 31
0.0
1001
ACAD
1000
ASC_BOUNDS
1002
{
1070
    19
1002
}
  0
INSERT
  5
9A
100
AcDbEntity
  8
BEARINGS
100
AcDbBlockReference
  2
*X0
 10
-31.585827
 20
27.769941
 30
0.0
1001
ACAD
1000
HATCH
1002
{
1070
    19
1000
ANSI31
1040
0.5
1040
0.0
1000
ASC_BOUNDS
1070
     1
1070
     1
1070
     4
1005
9C
1005
B5
1005
9B
1005
ED
1000
ASC_SEEDPOINT
1011
-20.483688
1021
19.336169
1031
0.0
1002
}
  0
LINE
  5
9B
100
AcDbEntity
  8
BEARINGS
100
AcDbLine
 10
-2.986569
 20
2.369832
 30
0.0
 11
-2.514169
 21
2.369832
 31
0.0
1001
ACAD
1000
ASC_BOUNDS
1002
{
1070
    19
1005
9A
1002
}
  0
LINE
  5
9C
100
AcDbEntity
  8
BEARINGS
100
AcDbLine
 10
-2.514169
 20
2.822587
 30
0.0
 11
-2.986569
 21
2.822587
 31
0.0
1001
ACAD
1000
ASC_BOUNDS
1002
{
1070
    19
1005
9A
1002
}
  0
LINE
  5
9D
100
AcDbEntity
  8
0
100
AcDbLine
 10
-3.459604
 20
2.035187
 30
0.0
 11
-1.569289
 21
2.035187
 31
0.0
  0
LINE
  5
9E
100
AcDbEntity
  8
0
100
AcDbLine
 10
-2.986569
 20
2.822587
 30
0.0
 11
-1.569289
 21
2.822587
 31
0.0
  0
LINE
  5
9F
100
AcDbEntity
  8
0
100
AcDbLine
 10
-3.459604
 20
2.035187
 30
0.0
 11
-1.569289
 21
2.035187
 31
0.0
  0
LINE
  5
A0
100
AcDbEntity
  8
BALLSCREWS
100
AcDbLine
 10
-3.459604
 20
2.369832
 30
0.0
 11
-2.041769
 21
2.369832
 31
0.0
  0
LINE
  5
A1
100
AcDbEntity
  8
BALLSCREWS
100
AcDbLine
 10
-3.459604
 20
1.700542
 30
0.0
 11
-2.121024
 21
1.700542
 31
0.0
1001
ACAD
1000
ASC_BOUNDS
1002
{
1070
    19
1002
}
  0
LINE
  5
A2
100
AcDbEntity
  8
SEAL
100
AcDbLine
 10
-3.183604
 20
1.602187
 30
0.0
 11
-3.183604
 21
1.346187
 31
0.0
1001
ACAD
1000
ASC_BOUNDS
1002
{
1070
    19
1005
5A
1002
}
  0
LINE
  5
A3
100
AcDbEntity
  8
SEAL
100
AcDbLine
 10
-3.183604
 20
1.602187
 30
0.0
 11
-3.459604
 21
1.602187
 31
0.0
1001
ACAD
1000
ASC_BOUNDS
1002
{
1070
    19
1005
5A
1002
}
  0
LINE
  5
A4
100
AcDbEntity
  8
SEAL
100
AcDbLine
 10
-3.459604
 20
1.346187
 30
0.0
 11
-3.459604
 21
1.602187
 31
0.0
1001
ACAD
1000
ASC_BOUNDS
1002
{
1070
    19
1005
5A
1002
}
  0
LINE
  5
A5
100
AcDbEntity
  8
SEAL
100
AcDbLine
 10
-3.183604
 20
1.346187
 30
0.0
 11
-3.459604
 21
1.346187
 31
0.0
1001
ACAD
1000
ASC_BOUNDS
1002
{
1070
    19
1005
5A
1002
}
  0
LINE
  5
A6
100
AcDbEntity
  8
SPACER
100
AcDbLine
 10
-2.986569
 20
1.700542
 30
0.0
 11
-2.986569
 21
1.598228
 31
0.0
1001
ACAD
1000
ASC_BOUNDS
1002
{
1070
    19
1005
6B
1002
}
  0
LINE
  5
A7
100
AcDbEntity
  8
SPACER
100
AcDbLine
 10
-3.459604
 20
1.700542
 30
0.0
 11
-2.986569
 21
1.700542
 31
0.0
1001
ACAD
1000
ASC_BOUNDS
1002
{
1070
    19
1005
6B
1002
}
  0
LINE
  5
A8
100
AcDbEntity
  8
SPACER
100
AcDbLine
 10
-3.459604
 20
1.598228
 30
0.0
 11
-3.459604
 21
1.700542
 31
0.0
1001
ACAD
1000
ASC_BOUNDS
1002
{
1070
    19
1005
6B
1002
}
  0
LINE
  5
A9
100
AcDbEntity
  8
SPACER
100
AcDbLine
 10
-3.459604
 20
1.598228
 30
0.0
 11
-2.986569
 21
1.598228
 31
0.0
1001
ACAD
1000
ASC_BOUNDS
1002
{
1070
    19
1005
6B
1002
}
  0
LINE
  5
AA
100
AcDbEntity
  8
SPACER
100
AcDbLine
 10
-3.459604
 20
2.472145
 30
0.0
 11
-2.986569
 21
2.472145
 31
0.0
1001
ACAD
1000
ASC_BOUNDS
1002
{
1070
    19
1005
85
1002
}
  0
LINE
  5
AB
100
AcDbEntity
  8
SEAL
100
AcDbLine
 10
-3.183604
 20
2.468187
 30
0.0
 11
-3.459604
 21
2.468187
 31
0.0
1001
ACAD
1000
ASC_BOUNDS
1002
{
1070
    19
1005
86
1002
}
  0
LINE
  5
AC
100
AcDbEntity
  8
0
100
AcDbLine
 10
-3.459604
 20
1.346187
 30
0.0
 11
-2.986569
 21
1.346187
 31
0.0
  0
LINE
  5
AD
100
AcDbEntity
  8
0
100
AcDbLine
 10
-2.986569
 20
1.346187
 30
0.0
 11
-2.986569
 21
1.247787
 31
0.0
  0
LINE
  5
AE
100
AcDbEntity
  8
BEARINGS
100
AcDbLine
 10
-2.986569
 20
1.247787
 30
0.0
 11
-2.986569
 21
1.700542
 31
0.0
1001
ACAD
1000
ASC_BOUNDS
1002
{
1070
    19
1002
}
  0
LINE
  5
AF
100
AcDbEntity
  8
SEAL
100
AcDbLine
 10
-3.183604
 20
2.468187
 30
0.0
 11
-3.183604
 21
2.724187
 31
0.0
1001
ACAD
1000
ASC_BOUNDS
1002
{
1070
    19
1005
86
1002
}
  0
LINE
  5
B0
100
AcDbEntity
  8
SEAL
100
AcDbLine
 10
-3.459604
 20
2.724187
 30
0.0
 11
-3.459604
 21
2.468187
 31
0.0
1001
ACAD
1000
ASC_BOUNDS
1002
{
1070
    19
1005
86
1002
}
  0
LINE
  5
B1
100
AcDbEntity
  8
SEAL
100
AcDbLine
 10
-3.183604
 20
2.724187
 30
0.0
 11
-3.459604
 21
2.724187
 31
0.0
1001
ACAD
1000
ASC_BOUNDS
1002
{
1070
    19
1005
86
1002
}
  0
LINE
  5
B2
100
AcDbEntity
  8
SPACER
100
AcDbLine
 10
-3.459604
 20
2.369832
 30
0.0
 11
-2.986569
 21
2.369832
 31
0.0
1001
ACAD
1000
ASC_BOUNDS
1002
{
1070
    19
1005
85
1002
}
  0
LINE
  5
B3
100
AcDbEntity
  8
SPACER
100
AcDbLine
 10
-3.459604
 20
2.472145
 30
0.0
 11
-3.459604
 21
2.369832
 31
0.0
1001
ACAD
1000
ASC_BOUNDS
1002
{
1070
    19
1005
85
1002
}
  0
LINE
  5
B4
100
AcDbEntity
  8
SPACER
100
AcDbLine
 10
-2.986569
 20
2.369832
 30
0.0
 11
-2.986569
 21
2.472145
 31
0.0
1001
ACAD
1000
ASC_BOUNDS
1002
{
1070
    19
1005
85
1002
}
  0
LINE
  5
B5
100
AcDbEntity
  8
BEARINGS
100
AcDbLine
 10
-2.986569
 20
2.822587
 30
0.0
 11
-2.986569
 21
2.369832
 31
0.0
1001
ACAD
1000
ASC_BOUNDS
1002
{
1070
    19
1005
9A
1002
}
  0
LINE
  5
B6
100
AcDbEntity
  8
0
100
AcDbLine
 10
-3.459604
 20
2.724187
 30
0.0
 11
-2.986569
 21
2.724187
 31
0.0
  0
LINE
  5
B7
100
AcDbEntity
  8
0
100
AcDbLine
 10
-2.986569
 20
2.724187
 30
0.0
 11
-2.986569
 21
2.822587
 31
0.0
  0
LINE
  5
B8
100
AcDbEntity
  8
BALLSCREWS
100
AcDbLine
 10
-3.459604
 20
2.035187
 30
0.0
 11
-3.459604
 21
2.527312
 31
0.0
  0
LINE
  5
B9
100
AcDbEntity
  8
BALLSCREWS
100
AcDbLine
 10
-3.459604
 20
2.035187
 30
0.0
 11
-3.459604
 21
1.543062
 31
0.0
  0
LINE
  5
BA
100
AcDbEntity
  8
0
100
AcDbLine
 10
-1.569289
 20
1.346187
 30
0.0
 11
-1.319289
 21
1.346187
 31
0.0
  0
LINE
  5
BB
100
AcDbEntity
  8
0
100
AcDbLine
 10
-1.319289
 20
1.346187
 30
0.0
 11
-1.319289
 21
1.035187
 31
0.0
  0
LINE
  5
BC
100
AcDbEntity
  8
SEAL
100
AcDbLine
 10
-1.569289
 20
1.346187
 30
0.0
 11
-1.569289
 21
1.602187
 31
0.0
1001
ACAD
1000
ASC_BOUNDS
1002
{
1070
    19
1005
5A
1002
}
  0
LINE
  5
BD
100
AcDbEntity
  8
SEAL
100
AcDbLine
 10
-1.569289
 20
1.602187
 30
0.0
 11
-1.845289
 21
1.602187
 31
0.0
1001
ACAD
1000
ASC_BOUNDS
1002
{
1070
    19
1005
5A
1002
}
  0
LINE
  5
BE
100
AcDbEntity
  8
SEAL
100
AcDbLine
 10
-1.845289
 20
1.602187
 30
0.0
 11
-1.845289
 21
1.346187
 31
0.0
1001
ACAD
1000
ASC_BOUNDS
1002
{
1070
    19
1005
5A
1002
}
  0
LINE
  5
BF
100
AcDbEntity
  8
SEAL
100
AcDbLine
 10
-1.845289
 20
1.346187
 30
0.0
 11
-1.569289
 21
1.346187
 31
0.0
1001
ACAD
1000
ASC_BOUNDS
1002
{
1070
    19
1005
5A
1002
}
  0
LINE
  5
C0
100
AcDbEntity
  8
SPACER
100
AcDbLine
 10
-1.569289
 20
1.602187
 30
0.0
 11
-1.569844
 21
1.700542
 31
0.0
1001
ACAD
1000
ASC_BOUNDS
1002
{
1070
    19
1005
6B
1002
}
  0
LINE
  5
C1
100
AcDbEntity
  8
SPACER
100
AcDbLine
 10
-2.041769
 20
1.700542
 30
0.0
 11
-1.569844
 21
1.700542
 31
0.0
1001
ACAD
1000
ASC_BOUNDS
1002
{
1070
    19
1005
6B
1002
}
  0
LINE
  5
C2
100
AcDbEntity
  8
SPACER
100
AcDbLine
 10
-2.042172
 20
1.601649
 30
0.0
 11
-2.041769
 21
1.700542
 31
0.0
1001
ACAD
1000
ASC_BOUNDS
1002
{
1070
    19
1005
6B
1002
}
  0
LINE
  5
C3
100
AcDbEntity
  8
SPACER
100
AcDbLine
 10
-1.569289
 20
1.602187
 30
0.0
 11
-2.042172
 21
1.601649
 31
0.0
1001
ACAD
1000
ASC_BOUNDS
1002
{
1070
    19
1005
6B
1002
}
  0
LINE
  5
C4
100
AcDbEntity
  8
SPACER
100
AcDbLine
 10
-1.569289
 20
1.346187
 30
0.0
 11
-1.569289
 21
1.247787
 31
0.0
1001
ACAD
1000
ASC_BOUNDS
1002
{
1070
    19
1005
6B
1002
}
  0
LINE
  5
C5
100
AcDbEntity
  8
SPACER
100
AcDbLine
 10
-2.041769
 20
1.346187
 30
0.0
 11
-1.569289
 21
1.346187
 31
0.0
1001
ACAD
1000
ASC_BOUNDS
1002
{
1070
    19
1005
6B
1002
}
  0
LINE
  5
C6
100
AcDbEntity
  8
SPACER
100
AcDbLine
 10
-2.041769
 20
1.247787
 30
0.0
 11
-2.041769
 21
1.346187
 31
0.0
1001
ACAD
1000
ASC_BOUNDS
1002
{
1070
    19
1005
6B
1002
}
  0
LINE
  5
C7
100
AcDbEntity
  8
SPACER
100
AcDbLine
 10
-1.569289
 20
1.247787
 30
0.0
 11
-2.041769
 21
1.247787
 31
0.0
1001
ACAD
1000
ASC_BOUNDS
1002
{
1070
    19
1005
6B
1002
}
  0
LINE
  5
C8
100
AcDbEntity
  8
SPACER
100
AcDbLine
 10
-2.042172
 20
2.468725
 30
0.0
 11
-2.041769
 21
2.369832
 31
0.0
1001
ACAD
1000
ASC_BOUNDS
1002
{
1070
    19
1005
85
1002
}
  0
LINE
  5
C9
100
AcDbEntity
  8
SPACER
100
AcDbLine
 10
-1.569289
 20
2.468187
 30
0.0
 11
-1.569844
 21
2.369832
 31
0.0
1001
ACAD
1000
ASC_BOUNDS
1002
{
1070
    19
1005
85
1002
}
  0
LINE
  5
CA
100
AcDbEntity
  8
SPACER
100
AcDbLine
 10
-1.569289
 20
2.468187
 30
0.0
 11
-2.042172
 21
2.468725
 31
0.0
1001
ACAD
1000
ASC_BOUNDS
1002
{
1070
    19
1005
85
1002
}
  0
LINE
  5
CB
100
AcDbEntity
  8
SEAL
100
AcDbLine
 10
-1.569289
 20
2.468187
 30
0.0
 11
-1.845289
 21
2.468187
 31
0.0
1001
ACAD
1000
ASC_BOUNDS
1002
{
1070
    19
1005
86
1002
}
  0
LINE
  5
CC
100
AcDbEntity
  8
0
100
AcDbLine
 10
-1.569289
 20
2.724187
 30
0.0
 11
-1.319289
 21
2.724187
 31
0.0
  0
LINE
  5
CD
100
AcDbEntity
  8
0
100
AcDbLine
 10
-1.319289
 20
2.724187
 30
0.0
 11
-1.319289
 21
3.035187
 31
0.0
  0
INSERT
  5
CE
100
AcDbEntity
  8
BEARINGS
100
AcDbBlockReference
  2
*X1
 10
-31.585827
 20
-23.699567
 30
0.0
 41
-1.0
 50
180.0
1001
ACAD
1000
HATCH
1002
{
1070
    19
1000
ANSI31
1040
0.5
1040
1.570796
1000
ASC_BOUNDS
1070
     1
1070
     1
1070
     4
1005
E0
1005
DF
1005
DE
1005
DD
1000
ASC_SEEDPOINT
1011
-20.483688
1021
19.336169
1031
0.0
1002
}
  0
LINE
  5
DD
100
AcDbEntity
  8
BEARINGS
100
AcDbLine
 10
-2.041769
 20
1.247787
 30
0.0
 11
-2.042284
 21
1.700542
 31
0.0
1001
ACAD
1000
ASC_BOUNDS
1002
{
1070
    19
1005
CE
1002
}
  0
LINE
  5
DE
100
AcDbEntity
  8
BEARINGS
100
AcDbLine
 10
-2.042284
 20
1.700542
 30
0.0
 11
-2.514169
 21
1.700542
 31
0.0
1001
ACAD
1000
ASC_BOUNDS
1002
{
1070
    19
1005
CE
1002
}
  0
LINE
  5
DF
100
AcDbEntity
  8
BEARINGS
100
AcDbLine
 10
-2.514169
 20
1.700542
 30
0.0
 11
-2.514169
 21
1.247787
 31
0.0
1001
ACAD
1000
ASC_BOUNDS
1002
{
1070
    19
1005
CE
1002
}
  0
LINE
  5
E0
100
AcDbEntity
  8
BEARINGS
100
AcDbLine
 10
-2.514169
 20
1.247787
 30
0.0
 11
-2.041769
 21
1.247787
 31
0.0
1001
ACAD
1000
ASC_BOUNDS
1002
{
1070
    19
1005
CE
1002
}
  0
INSERT
  5
E1
100
AcDbEntity
  8
BEARINGS
100
AcDbBlockReference
  2
*X1
 10
-31.585827
 20
27.769941
 30
0.0
1001
ACAD
1000
HATCH
1002
{
1070
    19
1000
ANSI31
1040
0.5
1040
1.570796
1000
ASC_BOUNDS
1070
     1
1070
     1
1070
     4
1005
EC
1005
ED
1005
EA
1005
EB
1000
ASC_SEEDPOINT
1011
-20.483688
1021
19.336169
1031
0.0
1002
}
  0
LINE
  5
E2
100
AcDbEntity
  8
SEAL
100
AcDbLine
 10
-1.845289
 20
2.468187
 30
0.0
 11
-1.845289
 21
2.724187
 31
0.0
1001
ACAD
1000
ASC_BOUNDS
1002
{
1070
    19
1005
86
1002
}
  0
LINE
  5
E3
100
AcDbEntity
  8
SEAL
100
AcDbLine
 10
-1.569289
 20
2.724187
 30
0.0
 11
-1.569289
 21
2.468187
 31
0.0
1001
ACAD
1000
ASC_BOUNDS
1002
{
1070
    19
1005
86
1002
}
  0
LINE
  5
E4
100
AcDbEntity
  8
SEAL
100
AcDbLine
 10
-1.845289
 20
2.724187
 30
0.0
 11
-1.569289
 21
2.724187
 31
0.0
1001
ACAD
1000
ASC_BOUNDS
1002
{
1070
    19
1005
86
1002
}
  0
LINE
  5
E5
100
AcDbEntity
  8
SPACER
100
AcDbLine
 10
-2.041769
 20
2.369832
 30
0.0
 11
-1.569844
 21
2.369832
 31
0.0
1001
ACAD
1000
ASC_BOUNDS
1002
{
1070
    19
1005
85
1002
}
  0
LINE
  5
E6
100
AcDbEntity
  8
SPACER
100
AcDbLine
 10
-1.569289
 20
2.724187
 30
0.0
 11
-1.569289
 21
2.822587
 31
0.0
1001
ACAD
1000
ASC_BOUNDS
1002
{
1070
    19
1005
85
1002
}
  0
LINE
  5
E7
100
AcDbEntity
  8
SPACER
100
AcDbLine
 10
-2.041769
 20
2.724187
 30
0.0
 11
-1.569289
 21
2.724187
 31
0.0
1001
ACAD
1000
ASC_BOUNDS
1002
{
1070
    19
1005
85
1002
}
  0
LINE
  5
E8
100
AcDbEntity
  8
SPACER
100
AcDbLine
 10
-2.041769
 20
2.822587
 30
0.0
 11
-2.041769
 21
2.724187
 31
0.0
1001
ACAD
1000
ASC_BOUNDS
1002
{
1070
    19
1005
85
1002
}
  0
LINE
  5
E9
100
AcDbEntity
  8
SPACER
100
AcDbLine
 10
-1.569289
 20
2.822587
 30
0.0
 11
-2.041769
 21
2.822587
 31
0.0
1001
ACAD
1000
ASC_BOUNDS
1002
{
1070
    19
1005
85
1002
}
  0
LINE
  5
EA
100
AcDbEntity
  8
BEARINGS
100
AcDbLine
 10
-2.042284
 20
2.369832
 30
0.0
 11
-2.514169
 21
2.369832
 31
0.0
1001
ACAD
1000
ASC_BOUNDS
1002
{
1070
    19
1005
E1
1002
}
  0
LINE
  5
EB
100
AcDbEntity
  8
BEARINGS
100
AcDbLine
 10
-2.041769
 20
2.822587
 30
0.0
 11
-2.042284
 21
2.369832
 31
0.0
1001
ACAD
1000
ASC_BOUNDS
1002
{
1070
    19
1005
E1
1002
}
  0
LINE
  5
EC
100
AcDbEntity
  8
BEARINGS
100
AcDbLine
 10
-2.514169
 20
2.822587
 30
0.0
 11
-2.041769
 21
2.822587
 31
0.0
1001
ACAD
1000
ASC_BOUNDS
1002
{
1070
    19
1005
E1
1002
}
  0
LINE
  5
ED
100
AcDbEntity
  8
BEARINGS
100
AcDbLine
 10
-2.514169
 20
2.369832
 30
0.0
 11
-2.514169
 21
2.822587
 31
0.0
1001
ACAD
1000
ASC_BOUNDS
1002
{
1070
    19
1005
E1
1002
}
  0
LINE
  5
EE
100
AcDbEntity
  8
BALLSCREWS
100
AcDbLine
 10
-1.569844
 20
2.035187
 30
0.0
 11
-1.569844
 21
2.369832
 31
0.0
  0
ARC
  5
EF
100
AcDbEntity
  8
BALLSCREWS
100
AcDbCircle
 10
-1.530474
 20
2.369832
 30
0.0
 40
0.03937
100
AcDbArc
 50
180.0
 51
360.0
  0
LINE
  5
F0
100
AcDbEntity
  8
BALLSCREWS
100
AcDbLine
 10
-1.491104
 20
2.369832
 30
0.0
 11
-1.491104
 21
2.035187
 31
0.0
  0
LINE
  5
F1
100
AcDbEntity
  8
BALLSCREWS
100
AcDbLine
 10
-2.042284
 20
2.369832
 30
0.0
 11
-1.569844
 21
2.369832
 31
0.0
  0
LINE
  5
F2
100
AcDbEntity
  8
BALLSCREWS
100
AcDbLine
 10
-1.057479
 20
2.369832
 30
0.0
 11
-1.057479
 21
1.700542
 31
0.0
  0
LINE
  5
F3
100
AcDbEntity
  8
BALLSCREWS
100
AcDbLine
 10
-1.491104
 20
2.369832
 30
0.0
 11
-1.057479
 21
2.369832
 31
0.0
  0
ARC
  5
F4
100
AcDbEntity
  8
BALLSCREWS
100
AcDbCircle
 10
-1.530474
 20
1.700542
 30
0.0
 40
0.03937
100
AcDbArc
 50
0.0
 51
180.0
  0
LINE
  5
F5
100
AcDbEntity
  8
BALLSCREWS
100
AcDbLine
 10
-2.042284
 20
1.700542
 30
0.0
 11
-1.569844
 21
1.700542
 31
0.0
  0
LINE
  5
F6
100
AcDbEntity
  8
BALLSCREWS
100
AcDbLine
 10
-1.491104
 20
1.700542
 30
0.0
 11
-1.057479
 21
1.700542
 31
0.0
  0
LINE
  5
F7
100
AcDbEntity
  8
BALLSCREWS
100
AcDbLine
 10
-1.491104
 20
1.700542
 30
0.0
 11
-1.491104
 21
2.035187
 31
0.0
  0
LINE
  5
F8
100
AcDbEntity
  8
BALLSCREWS
100
AcDbLine
 10
-1.569844
 20
2.035187
 30
0.0
 11
-1.569844
 21
1.700542
 31
0.0
  0
ARC
  5
F9
100
AcDbEntity
  8
BALLSCREWS
100
AcDbCircle
 10
-0.781889
 20
2.035187
 30
0.0
 40
0.098425
100
AcDbArc
 50
90.0
 51
270.0
  0
LINE
  5
FA
100
AcDbEntity
  8
BALLSCREWS
100
AcDbLine
 10
-0.565354
 20
2.133612
 30
0.0
 11
-0.781889
 21
2.133612
 31
0.0
  0
LINE
  5
FB
100
AcDbEntity
  8
BALLSCREWS
100
AcDbLine
 10
-0.565354
 20
1.936762
 30
0.0
 11
-0.781889
 21
1.936762
 31
0.0
  0
LINE
  5
FC
100
AcDbEntity
  8
0
  6
CENTER
 48
0.1
100
AcDbLine
 10
-1.962989
 20
3.495814
 30
0.0
 11
-1.962989
 21
0.57456
 31
0.0
  0
LINE
  5
FD
100
AcDbEntity
  8
0
  6
CENTER
 48
0.1
100
AcDbLine
 10
-3.065349
 20
3.495814
 30
0.0
 11
-3.065349
 21
0.57456
 31
0.0
  0
LINE
  5
FE
100
AcDbEntity
  8
0
100
AcDbLine
 10
-3.459604
 20
3.495814
 30
0.0
 11
-1.569289
 21
3.495814
 31
0.0
  0
LINE
  5
FF
100
AcDbEntity
  8
0
100
AcDbLine
 10
-3.459604
 20
0.57456
 30
0.0
 11
-1.569289
 21
0.57456
 31
0.0
  0
LINE
  5
100
100
AcDbEntity
  8
0
100
AcDbLine
 10
-1.569289
 20
0.57456
 30
0.0
 11
-1.569289
 21
3.495814
 31
0.0
  0
LINE
  5
101
100
AcDbEntity
  8
0
100
AcDbLine
 10
-3.459604
 20
0.57456
 30
0.0
 11
-3.459604
 21
3.495814
 31
0.0
  0
LINE
  5
102
100
AcDbEntity
  8
0
100
AcDbLine
 10
-1.569289
 20
-3.212609
 30
0.0
 11
-1.319289
 21
-3.212609
 31
0.0
  0
LINE
  5
103
100
AcDbEntity
  8
0
100
AcDbLine
 10
-1.319289
 20
-3.212609
 30
0.0
 11
-1.319289
 21
-3.523609
 31
0.0
  0
LINE
  5
104
100
AcDbEntity
  8
0
100
AcDbLine
 10
-1.319289
 20
-3.523609
 30
0.0
 11
-1.569289
 21
-3.523609
 31
0.0
  0
LINE
  5
105
100
AcDbEntity
  8
0
100
AcDbLine
 10
-1.319289
 20
-1.523609
 30
0.0
 11
-1.569289
 21
-1.523609
 31
0.0
  0
LINE
  5
106
100
AcDbEntity
  8
SEAL
100
AcDbLine
 10
-3.183604
 20
-2.956609
 30
0.0
 11
-3.183604
 21
-3.212609
 31
0.0
1001
ACAD
1000
ASC_BOUNDS
1002
{
1070
    19
1005
10A
1002
}
  0
LINE
  5
107
100
AcDbEntity
  8
SEAL
100
AcDbLine
 10
-3.183604
 20
-2.956609
 30
0.0
 11
-3.459604
 21
-2.956609
 31
0.0
1001
ACAD
1000
ASC_BOUNDS
1002
{
1070
    19
1005
10A
1002
}
  0
LINE
  5
108
100
AcDbEntity
  8
SEAL
100
AcDbLine
 10
-3.459604
 20
-3.212609
 30
0.0
 11
-3.459604
 21
-2.956609
 31
0.0
1001
ACAD
1000
ASC_BOUNDS
1002
{
1070
    19
1005
10A
1002
}
  0
LINE
  5
109
100
AcDbEntity
  8
SEAL
100
AcDbLine
 10
-3.183604
 20
-3.212609
 30
0.0
 11
-3.459604
 21
-3.212609
 31
0.0
1001
ACAD
1000
ASC_BOUNDS
1002
{
1070
    19
1005
10A
1002
}
  0
INSERT
  5
10A
100
AcDbEntity
  8
SEAL
100
AcDbBlockReference
  2
*X2
 10
-31.585827
 20
-28.258363
 30
0.0
 41
-1.0
 50
180.0
1001
ACAD
1000
HATCH
1002
{
1070
    19
1000
ANSI31
1040
0.5
1040
6.283185
1000
ASC_BOUNDS
1070
     2
1070
     1
1070
     4
1005
10E
1005
10D
1005
10C
1005
10B
1070
     1
1070
     4
1005
109
1005
108
1005
107
1005
106
1000
ASC_SEEDPOINT
1011
-3.149058
1021
-2.123917
1031
0.0
1002
}
  0
LINE
  5
10B
100
AcDbEntity
  8
SEAL
100
AcDbLine
 10
-1.569289
 20
-3.212609
 30
0.0
 11
-1.569289
 21
-2.956609
 31
0.0
1001
ACAD
1000
ASC_BOUNDS
1002
{
1070
    19
1005
10A
1002
}
  0
LINE
  5
10C
100
AcDbEntity
  8
SEAL
100
AcDbLine
 10
-1.569289
 20
-2.956609
 30
0.0
 11
-1.845289
 21
-2.956609
 31
0.0
1001
ACAD
1000
ASC_BOUNDS
1002
{
1070
    19
1005
10A
1002
}
  0
LINE
  5
10D
100
AcDbEntity
  8
SEAL
100
AcDbLine
 10
-1.845289
 20
-2.956609
 30
0.0
 11
-1.845289
 21
-3.212609
 31
0.0
1001
ACAD
1000
ASC_BOUNDS
1002
{
1070
    19
1005
10A
1002
}
  0
LINE
  5
10E
100
AcDbEntity
  8
SEAL
100
AcDbLine
 10
-1.845289
 20
-3.212609
 30
0.0
 11
-1.569289
 21
-3.212609
 31
0.0
1001
ACAD
1000
ASC_BOUNDS
1002
{
1070
    19
1005
10A
1002
}
  0
LINE
  5
10F
100
AcDbEntity
  8
SPACER
100
AcDbLine
 10
-1.569289
 20
-2.956609
 30
0.0
 11
-1.569844
 21
-2.858254
 31
0.0
1001
ACAD
1000
ASC_BOUNDS
1002
{
1070
    19
1005
11B
1002
}
  0
LINE
  5
110
100
AcDbEntity
  8
SPACER
100
AcDbLine
 10
-2.041769
 20
-2.858254
 30
0.0
 11
-1.569844
 21
-2.858254
 31
0.0
1001
ACAD
1000
ASC_BOUNDS
1002
{
1070
    19
1005
11B
1002
}
  0
LINE
  5
111
100
AcDbEntity
  8
SPACER
100
AcDbLine
 10
-2.042172
 20
-2.957147
 30
0.0
 11
-2.041769
 21
-2.858254
 31
0.0
1001
ACAD
1000
ASC_BOUNDS
1002
{
1070
    19
1005
11B
1002
}
  0
LINE
  5
112
100
AcDbEntity
  8
SPACER
100
AcDbLine
 10
-1.569289
 20
-2.956609
 30
0.0
 11
-2.042172
 21
-2.957147
 31
0.0
1001
ACAD
1000
ASC_BOUNDS
1002
{
1070
    19
1005
11B
1002
}
  0
LINE
  5
113
100
AcDbEntity
  8
SPACER
100
AcDbLine
 10
-1.569289
 20
-3.212609
 30
0.0
 11
-1.569289
 21
-3.311009
 31
0.0
1001
ACAD
1000
ASC_BOUNDS
1002
{
1070
    19
1005
11B
1002
}
  0
LINE
  5
114
100
AcDbEntity
  8
SPACER
100
AcDbLine
 10
-2.041769
 20
-3.212609
 30
0.0
 11
-1.569289
 21
-3.212609
 31
0.0
1001
ACAD
1000
ASC_BOUNDS
1002
{
1070
    19
1005
11B
1002
}
  0
LINE
  5
115
100
AcDbEntity
  8
SPACER
100
AcDbLine
 10
-2.041769
 20
-3.311009
 30
0.0
 11
-2.041769
 21
-3.212609
 31
0.0
1001
ACAD
1000
ASC_BOUNDS
1002
{
1070
    19
1005
11B
1002
}
  0
LINE
  5
116
100
AcDbEntity
  8
SPACER
100
AcDbLine
 10
-1.569289
 20
-3.311009
 30
0.0
 11
-2.041769
 21
-3.311009
 31
0.0
1001
ACAD
1000
ASC_BOUNDS
1002
{
1070
    19
1005
11B
1002
}
  0
LINE
  5
117
100
AcDbEntity
  8
SPACER
100
AcDbLine
 10
-2.986569
 20
-2.858254
 30
0.0
 11
-2.986569
 21
-2.960568
 31
0.0
1001
ACAD
1000
ASC_BOUNDS
1002
{
1070
    19
1005
11B
1002
}
  0
LINE
  5
118
100
AcDbEntity
  8
SPACER
100
AcDbLine
 10
-3.459604
 20
-2.858254
 30
0.0
 11
-2.986569
 21
-2.858254
 31
0.0
1001
ACAD
1000
ASC_BOUNDS
1002
{
1070
    19
1005
11B
1002
}
  0
LINE
  5
119
100
AcDbEntity
  8
SPACER
100
AcDbLine
 10
-3.459604
 20
-2.960568
 30
0.0
 11
-3.459604
 21
-2.858254
 31
0.0
1001
ACAD
1000
ASC_BOUNDS
1002
{
1070
    19
1005
11B
1002
}
  0
LINE
  5
11A
100
AcDbEntity
  8
SPACER
100
AcDbLine
 10
-3.459604
 20
-2.960568
 30
0.0
 11
-2.986569
 21
-2.960568
 31
0.0
1001
ACAD
1000
ASC_BOUNDS
1002
{
1070
    19
1005
11B
1002
}
  0
INSERT
  5
11B
100
AcDbEntity
  8
SPACER
100
AcDbBlockReference
  2
*X3
 10
-31.585827
 20
-28.258363
 30
0.0
 41
-1.0
 50
180.0
1001
ACAD
1000
HATCH
1002
{
1070
    19
1000
ANSI31
1040
0.5
1040
1.570796
1000
ASC_BOUNDS
1070
     3
1070
     1
1070
     4
1005
112
1005
111
1005
110
1005
10F
1070
     1
1070
     4
1005
116
1005
115
1005
114
1005
113
1070
     1
1070
     4
1005
11A
1005
119
1005
118
1005
117
1000
ASC_SEEDPOINT
1011
-3.149058
1021
-2.123917
1031
0.0
1002
}
  0
INSERT
  5
11C
100
AcDbEntity
  8
SPACER
100
AcDbBlockReference
  2
*X3
 10
-31.585827
 20
23.211145
 30
0.0
1001
ACAD
1000
HATCH
1002
{
1070
    19
1000
ANSI31
1040
0.5
1040
1.570796
1000
ASC_BOUNDS
1070
     3
1070
     1
1070
     4
1005
11F
1005
11D
1005
141
1005
11E
1070
     1
1070
     4
1005
145
1005
144
1005
143
1005
142
1070
     1
1070
     4
1005
120
1005
13F
1005
13E
1005
140
1000
ASC_SEEDPOINT
1011
-3.149058
1021
-2.123917
1031
0.0
1002
}
  0
LINE
  5
11D
100
AcDbEntity
  8
SPACER
100
AcDbLine
 10
-2.042172
 20
-2.090071
 30
0.0
 11
-2.041769
 21
-2.188964
 31
0.0
1001
ACAD
1000
ASC_BOUNDS
1002
{
1070
    19
1005
11C
1002
}
  0
LINE
  5
11E
100
AcDbEntity
  8
SPACER
100
AcDbLine
 10
-1.569289
 20
-2.090609
 30
0.0
 11
-1.569844
 21
-2.188964
 31
0.0
1001
ACAD
1000
ASC_BOUNDS
1002
{
1070
    19
1005
11C
1002
}
  0
LINE
  5
11F
100
AcDbEntity
  8
SPACER
100
AcDbLine
 10
-1.569289
 20
-2.090609
 30
0.0
 11
-2.042172
 21
-2.090071
 31
0.0
1001
ACAD
1000
ASC_BOUNDS
1002
{
1070
    19
1005
11C
1002
}
  0
LINE
  5
120
100
AcDbEntity
  8
SPACER
100
AcDbLine
 10
-3.459604
 20
-2.086651
 30
0.0
 11
-2.986569
 21
-2.086651
 31
0.0
1001
ACAD
1000
ASC_BOUNDS
1002
{
1070
    19
1005
11C
1002
}
  0
INSERT
  5
121
100
AcDbEntity
  8
SEAL
100
AcDbBlockReference
  2
*X2
 10
-31.585827
 20
23.211145
 30
0.0
1001
ACAD
1000
HATCH
1002
{
1070
    19
1000
ANSI31
1040
0.5
1040
1.570796
1000
ASC_BOUNDS
1070
     2
1070
     1
1070
     4
1005
13A
1005
138
1005
123
1005
139
1070
     1
1070
     4
1005
13D
1005
13C
1005
122
1005
13B
1000
ASC_SEEDPOINT
1011
-3.350493
1021
-1.957981
1031
0.0
1002
}
  0
LINE
  5
122
100
AcDbEntity
  8
SEAL
100
AcDbLine
 10
-3.183604
 20
-2.090609
 30
0.0
 11
-3.459604
 21
-2.090609
 31
0.0
1001
ACAD
1000
ASC_BOUNDS
1002
{
1070
    19
1005
121
1002
}
  0
LINE
  5
123
100
AcDbEntity
  8
SEAL
100
AcDbLine
 10
-1.569289
 20
-2.090609
 30
0.0
 11
-1.845289
 21
-2.090609
 31
0.0
1001
ACAD
1000
ASC_BOUNDS
1002
{
1070
    19
1005
121
1002
}
  0
LINE
  5
124
100
AcDbEntity
  8
0
100
AcDbLine
 10
-1.569289
 20
-1.834609
 30
0.0
 11
-1.319289
 21
-1.834609
 31
0.0
  0
LINE
  5
125
100
AcDbEntity
  8
0
100
AcDbLine
 10
-1.319289
 20
-1.834609
 30
0.0
 11
-1.319289
 21
-1.523609
 31
0.0
  0
LINE
  5
126
100
AcDbEntity
  8
0
100
AcDbLine
 10
-1.569289
 20
-2.523609
 30
0.0
 11
-1.569289
 21
-3.984236
 31
0.0
  0
LINE
  5
127
100
AcDbEntity
  8
0
100
AcDbLine
 10
-3.459604
 20
-2.523609
 30
0.0
 11
-3.459604
 21
-3.984236
 31
0.0
  0
LINE
  5
128
100
AcDbEntity
  8
0
100
AcDbLine
 10
-2.514169
 20
-2.858254
 30
0.0
 11
-2.514169
 21
-3.984236
 31
0.0
  0
INSERT
  5
129
100
AcDbEntity
  8
BEARINGS
100
AcDbBlockReference
  2
*X1
 10
-31.585827
 20
-28.258363
 30
0.0
 41
-1.0
 50
180.0
1001
ACAD
1000
HATCH
1002
{
1070
    19
1000
ANSI31
1040
0.5
1040
1.570796
1000
ASC_BOUNDS
1070
     1
1070
     1
1070
     4
1005
12D
1005
12C
1005
12B
1005
12A
1000
ASC_SEEDPOINT
1011
-3.261863
1021
-2.159252
1031
0.0
1002
}
  0
LINE
  5
12A
100
AcDbEntity
  8
BEARINGS
100
AcDbLine
 10
-2.041769
 20
-3.311009
 30
0.0
 11
-2.042284
 21
-2.858254
 31
0.0
1001
ACAD
1000
ASC_BOUNDS
1002
{
1070
    19
1005
129
1002
}
  0
LINE
  5
12B
100
AcDbEntity
  8
BEARINGS
100
AcDbLine
 10
-2.042284
 20
-2.858254
 30
0.0
 11
-2.514169
 21
-2.858254
 31
0.0
1001
ACAD
1000
ASC_BOUNDS
1002
{
1070
    19
1005
129
1002
}
  0
LINE
  5
12C
100
AcDbEntity
  8
BEARINGS
100
AcDbLine
 10
-2.514169
 20
-2.858254
 30
0.0
 11
-2.514169
 21
-3.311009
 31
0.0
1001
ACAD
1000
ASC_BOUNDS
1002
{
1070
    19
1005
129
1002
}
  0
LINE
  5
12D
100
AcDbEntity
  8
BEARINGS
100
AcDbLine
 10
-2.514169
 20
-3.311009
 30
0.0
 11
-2.041769
 21
-3.311009
 31
0.0
1001
ACAD
1000
ASC_BOUNDS
1002
{
1070
    19
1005
129
1002
}
  0
LINE
  5
12E
100
AcDbEntity
  8
0
100
AcDbLine
 10
-3.459604
 20
-3.212609
 30
0.0
 11
-2.986569
 21
-3.212609
 31
0.0
  0
LINE
  5
12F
100
AcDbEntity
  8
0
100
AcDbLine
 10
-2.986569
 20
-3.212609
 30
0.0
 11
-2.986569
 21
-3.311009
 31
0.0
  0
LINE
  5
130
100
AcDbEntity
  8
BEARINGS
100
AcDbLine
 10
-2.986569
 20
-3.311009
 30
0.0
 11
-2.986569
 21
-2.858254
 31
0.0
1001
ACAD
1000
ASC_BOUNDS
1002
{
1070
    19
1005
133
1002
}
  0
LINE
  5
131
100
AcDbEntity
  8
0
100
AcDbLine
 10
-3.459604
 20
-3.984236
 30
0.0
 11
-1.569289
 21
-3.984236
 31
0.0
  0
LINE
  5
132
100
AcDbEntity
  8
0
100
AcDbLine
 10
-2.986569
 20
-3.311009
 30
0.0
 11
-1.569289
 21
-3.311009
 31
0.0
  0
INSERT
  5
133
100
AcDbEntity
  8
BEARINGS
100
AcDbBlockReference
  2
*X0
 10
-31.585827
 20
-28.258363
 30
0.0
 41
-1.0
 50
180.0
1001
ACAD
1000
HATCH
1002
{
1070
    19
1000
ANSI31
1040
0.5
1040
0.0
1000
ASC_BOUNDS
1070
     1
1070
     1
1070
     4
1005
135
1005
130
1005
134
1005
12C
1000
ASC_SEEDPOINT
1011
-3.261863
1021
-2.159252
1031
0.0
1002
}
  0
LINE
  5
134
100
AcDbEntity
  8
BEARINGS
100
AcDbLine
 10
-2.986569
 20
-2.858254
 30
0.0
 11
-2.514169
 21
-2.858254
 31
0.0
1001
ACAD
1000
ASC_BOUNDS
1002
{
1070
    19
1005
133
1002
}
  0
LINE
  5
135
100
AcDbEntity
  8
BEARINGS
100
AcDbLine
 10
-2.514169
 20
-3.311009
 30
0.0
 11
-2.986569
 21
-3.311009
 31
0.0
1001
ACAD
1000
ASC_BOUNDS
1002
{
1070
    19
1005
133
1002
}
  0
INSERT
  5
136
100
AcDbEntity
  8
BEARINGS
100
AcDbBlockReference
  2
*X1
 10
-31.585827
 20
23.211145
 30
0.0
1001
ACAD
1000
HATCH
1002
{
1070
    19
1000
ANSI31
1040
0.5
1040
1.570796
1000
ASC_BOUNDS
1070
     1
1070
     1
1070
     4
1005
148
1005
149
1005
146
1005
147
1000
ASC_SEEDPOINT
1011
-2.294974
1021
-1.982134
1031
0.0
1002
}
  0
INSERT
  5
137
100
AcDbEntity
  8
BEARINGS
100
AcDbBlockReference
  2
*X0
 10
-31.585827
 20
23.211145
 30
0.0
1001
ACAD
1000
HATCH
1002
{
1070
    19
1000
ANSI31
1040
0.5
1040
0.0
1000
ASC_BOUNDS
1070
     1
1070
     1
1070
     4
1005
14C
1005
14B
1005
14A
1005
149
1000
ASC_SEEDPOINT
1011
-2.746188
1021
-1.982134
1031
0.0
1002
}
  0
LINE
  5
138
100
AcDbEntity
  8
SEAL
100
AcDbLine
 10
-1.845289
 20
-2.090609
 30
0.0
 11
-1.845289
 21
-1.834609
 31
0.0
1001
ACAD
1000
ASC_BOUNDS
1002
{
1070
    19
1005
121
1002
}
  0
LINE
  5
139
100
AcDbEntity
  8
SEAL
100
AcDbLine
 10
-1.569289
 20
-1.834609
 30
0.0
 11
-1.569289
 21
-2.090609
 31
0.0
1001
ACAD
1000
ASC_BOUNDS
1002
{
1070
    19
1005
121
1002
}
  0
LINE
  5
13A
100
AcDbEntity
  8
SEAL
100
AcDbLine
 10
-1.845289
 20
-1.834609
 30
0.0
 11
-1.569289
 21
-1.834609
 31
0.0
1001
ACAD
1000
ASC_BOUNDS
1002
{
1070
    19
1005
121
1002
}
  0
LINE
  5
13B
100
AcDbEntity
  8
SEAL
100
AcDbLine
 10
-3.183604
 20
-2.090609
 30
0.0
 11
-3.183604
 21
-1.834609
 31
0.0
1001
ACAD
1000
ASC_BOUNDS
1002
{
1070
    19
1005
121
1002
}
  0
LINE
  5
13C
100
AcDbEntity
  8
SEAL
100
AcDbLine
 10
-3.459604
 20
-1.834609
 30
0.0
 11
-3.459604
 21
-2.090609
 31
0.0
1001
ACAD
1000
ASC_BOUNDS
1002
{
1070
    19
1005
121
1002
}
  0
LINE
  5
13D
100
AcDbEntity
  8
SEAL
100
AcDbLine
 10
-3.183604
 20
-1.834609
 30
0.0
 11
-3.459604
 21
-1.834609
 31
0.0
1001
ACAD
1000
ASC_BOUNDS
1002
{
1070
    19
1005
121
1002
}
  0
LINE
  5
13E
100
AcDbEntity
  8
SPACER
100
AcDbLine
 10
-3.459604
 20
-2.188964
 30
0.0
 11
-2.986569
 21
-2.188964
 31
0.0
1001
ACAD
1000
ASC_BOUNDS
1002
{
1070
    19
1005
11C
1002
}
  0
LINE
  5
13F
100
AcDbEntity
  8
SPACER
100
AcDbLine
 10
-3.459604
 20
-2.086651
 30
0.0
 11
-3.459604
 21
-2.188964
 31
0.0
1001
ACAD
1000
ASC_BOUNDS
1002
{
1070
    19
1005
11C
1002
}
  0
LINE
  5
140
100
AcDbEntity
  8
SPACER
100
AcDbLine
 10
-2.986569
 20
-2.188964
 30
0.0
 11
-2.986569
 21
-2.086651
 31
0.0
1001
ACAD
1000
ASC_BOUNDS
1002
{
1070
    19
1005
11C
1002
}
  0
LINE
  5
141
100
AcDbEntity
  8
SPACER
100
AcDbLine
 10
-2.041769
 20
-2.188964
 30
0.0
 11
-1.569844
 21
-2.188964
 31
0.0
1001
ACAD
1000
ASC_BOUNDS
1002
{
1070
    19
1005
11C
1002
}
  0
LINE
  5
142
100
AcDbEntity
  8
SPACER
100
AcDbLine
 10
-1.569289
 20
-1.834609
 30
0.0
 11
-1.569289
 21
-1.736209
 31
0.0
1001
ACAD
1000
ASC_BOUNDS
1002
{
1070
    19
1005
11C
1002
}
  0
LINE
  5
143
100
AcDbEntity
  8
SPACER
100
AcDbLine
 10
-2.041769
 20
-1.834609
 30
0.0
 11
-1.569289
 21
-1.834609
 31
0.0
1001
ACAD
1000
ASC_BOUNDS
1002
{
1070
    19
1005
11C
1002
}
  0
LINE
  5
144
100
AcDbEntity
  8
SPACER
100
AcDbLine
 10
-2.041769
 20
-1.736209
 30
0.0
 11
-2.041769
 21
-1.834609
 31
0.0
1001
ACAD
1000
ASC_BOUNDS
1002
{
1070
    19
1005
11C
1002
}
  0
LINE
  5
145
100
AcDbEntity
  8
SPACER
100
AcDbLine
 10
-1.569289
 20
-1.736209
 30
0.0
 11
-2.041769
 21
-1.736209
 31
0.0
1001
ACAD
1000
ASC_BOUNDS
1002
{
1070
    19
1005
11C
1002
}
  0
LINE
  5
146
100
AcDbEntity
  8
BEARINGS
100
AcDbLine
 10
-2.042284
 20
-2.188964
 30
0.0
 11
-2.514169
 21
-2.188964
 31
0.0
1001
ACAD
1000
ASC_BOUNDS
1002
{
1070
    19
1005
136
1002
}
  0
LINE
  5
147
100
AcDbEntity
  8
BEARINGS
100
AcDbLine
 10
-2.041769
 20
-1.736209
 30
0.0
 11
-2.042284
 21
-2.188964
 31
0.0
1001
ACAD
1000
ASC_BOUNDS
1002
{
1070
    19
1005
136
1002
}
  0
LINE
  5
148
100
AcDbEntity
  8
BEARINGS
100
AcDbLine
 10
-2.514169
 20
-1.736209
 30
0.0
 11
-2.041769
 21
-1.736209
 31
0.0
1001
ACAD
1000
ASC_BOUNDS
1002
{
1070
    19
1005
136
1002
}
  0
LINE
  5
149
100
AcDbEntity
  8
BEARINGS
100
AcDbLine
 10
-2.514169
 20
-2.188964
 30
0.0
 11
-2.514169
 21
-1.736209
 31
0.0
1001
ACAD
1000
ASC_BOUNDS
1002
{
1070
    19
1005
137
1005
136
1002
}
  0
LINE
  5
14A
100
AcDbEntity
  8
BEARINGS
100
AcDbLine
 10
-2.986569
 20
-2.188964
 30
0.0
 11
-2.514169
 21
-2.188964
 31
0.0
1001
ACAD
1000
ASC_BOUNDS
1002
{
1070
    19
1005
137
1002
}
  0
LINE
  5
14B
100
AcDbEntity
  8
BEARINGS
100
AcDbLine
 10
-2.986569
 20
-1.736209
 30
0.0
 11
-2.986569
 21
-2.188964
 31
0.0
1001
ACAD
1000
ASC_BOUNDS
1002
{
1070
    19
1005
137
1002
}
  0
LINE
  5
14C
100
AcDbEntity
  8
BEARINGS
100
AcDbLine
 10
-2.514169
 20
-1.736209
 30
0.0
 11
-2.986569
 21
-1.736209
 31
0.0
1001
ACAD
1000
ASC_BOUNDS
1002
{
1070
    19
1005
137
1002
}
  0
LINE
  5
14D
100
AcDbEntity
  8
0
100
AcDbLine
 10
-3.459604
 20
-1.834609
 30
0.0
 11
-2.986569
 21
-1.834609
 31
0.0
  0
LINE
  5
14E
100
AcDbEntity
  8
0
100
AcDbLine
 10
-3.459604
 20
-2.523609
 30
0.0
 11
-1.569289
 21
-2.523609
 31
0.0
  0
LINE
  5
14F
100
AcDbEntity
  8
0
100
AcDbLine
 10
-2.986569
 20
-1.834609
 30
0.0
 11
-2.986569
 21
-1.736209
 31
0.0
  0
LINE
  5
150
100
AcDbEntity
  8
0
100
AcDbLine
 10
-2.986569
 20
-1.736209
 30
0.0
 11
-1.569289
 21
-1.736209
 31
0.0
  0
LINE
  5
151
100
AcDbEntity
  8
BALLSCREWS
100
AcDbLine
 10
-1.569844
 20
-2.523609
 30
0.0
 11
-1.569844
 21
-2.188964
 31
0.0
  0
ARC
  5
152
100
AcDbEntity
  8
BALLSCREWS
100
AcDbCircle
 10
-1.530474
 20
-2.188964
 30
0.0
 40
0.03937
100
AcDbArc
 50
180.0
 51
360.0
  0
LINE
  5
153
100
AcDbEntity
  8
BALLSCREWS
100
AcDbLine
 10
-1.491104
 20
-2.188964
 30
0.0
 11
-1.491104
 21
-2.523609
 31
0.0
  0
LINE
  5
154
100
AcDbEntity
  8
BALLSCREWS
100
AcDbLine
 10
-2.042284
 20
-2.188964
 30
0.0
 11
-1.569844
 21
-2.188964
 31
0.0
  0
LINE
  5
155
100
AcDbEntity
  8
0
100
AcDbLine
 10
-1.569289
 20
-2.523609
 30
0.0
 11
-1.569289
 21
-1.062982
 31
0.0
  0
LINE
  5
156
100
AcDbEntity
  8
BALLSCREWS
100
AcDbLine
 10
-1.057479
 20
-2.188964
 30
0.0
 11
-1.057479
 21
-2.858254
 31
0.0
  0
LINE
  5
157
100
AcDbEntity
  8
BALLSCREWS
100
AcDbLine
 10
-1.491104
 20
-2.188964
 30
0.0
 11
-1.057479
 21
-2.188964
 31
0.0
  0
ARC
  5
158
100
AcDbEntity
  8
BALLSCREWS
100
AcDbCircle
 10
-1.530474
 20
-2.858254
 30
0.0
 40
0.03937
100
AcDbArc
 50
0.0
 51
180.0
  0
LINE
  5
159
100
AcDbEntity
  8
BALLSCREWS
100
AcDbLine
 10
-2.042284
 20
-2.858254
 30
0.0
 11
-1.569844
 21
-2.858254
 31
0.0
  0
LINE
  5
15A
100
AcDbEntity
  8
BALLSCREWS
100
AcDbLine
 10
-1.491104
 20
-2.858254
 30
0.0
 11
-1.057479
 21
-2.858254
 31
0.0
  0
LINE
  5
15B
100
AcDbEntity
  8
BALLSCREWS
100
AcDbLine
 10
-1.491104
 20
-2.858254
 30
0.0
 11
-1.491104
 21
-2.523609
 31
0.0
  0
LINE
  5
15C
100
AcDbEntity
  8
BALLSCREWS
100
AcDbLine
 10
-1.569844
 20
-2.523609
 30
0.0
 11
-1.569844
 21
-2.858254
 31
0.0
  0
LINE
  5
15D
100
AcDbEntity
  8
BALLSCREWS
100
AcDbLine
 10
-0.565354
 20
-2.425184
 30
0.0
 11
-0.781889
 21
-2.425184
 31
0.0
  0
ARC
  5
15E
100
AcDbEntity
  8
BALLSCREWS
100
AcDbCircle
 10
-0.781889
 20
-2.523609
 30
0.0
 40
0.098425
100
AcDbArc
 50
90.0
 51
270.0
  0
LINE
  5
15F
100
AcDbEntity
  8
BALLSCREWS
100
AcDbLine
 10
-0.565354
 20
-2.622034
 30
0.0
 11
-0.781889
 21
-2.622034
 31
0.0
  0
LINE
  5
160
100
AcDbEntity
  8
0
100
AcDbLine
 10
-2.514169
 20
-2.188964
 30
0.0
 11
-2.514169
 21
-1.062982
 31
0.0
  0
LINE
  5
161
100
AcDbEntity
  8
0
100
AcDbLine
 10
-3.459604
 20
-2.523609
 30
0.0
 11
-3.459604
 21
-1.062982
 31
0.0
  0
LINE
  5
162
100
AcDbEntity
  8
BALLSCREWS
100
AcDbLine
 10
-3.459604
 20
-2.523609
 30
0.0
 11
-3.459604
 21
-2.031484
 31
0.0
  0
LINE
  5
163
100
AcDbEntity
  8
BALLSCREWS
100
AcDbLine
 10
-3.459604
 20
-2.523609
 30
0.0
 11
-3.459604
 21
-3.015734
 31
0.0
  0
LINE
  5
164
100
AcDbEntity
  8
0
100
AcDbLine
 10
-3.459604
 20
-2.523609
 30
0.0
 11
-1.569289
 21
-2.523609
 31
0.0
  0
LINE
  5
165
100
AcDbEntity
  8
BALLSCREWS
100
AcDbLine
 10
-3.459604
 20
-2.188964
 30
0.0
 11
-2.041769
 21
-2.188964
 31
0.0
  0
LINE
  5
166
100
AcDbEntity
  8
BALLSCREWS
100
AcDbLine
 10
-3.459604
 20
-2.858254
 30
0.0
 11
-2.121024
 21
-2.858254
 31
0.0
1001
ACAD
1000
ASC_BOUNDS
1002
{
1070
    19
1002
}
  0
LINE
  5
167
100
AcDbEntity
  8
0
100
AcDbLine
 10
-3.459604
 20
-1.062982
 30
0.0
 11
-1.569289
 21
-1.062982
 31
0.0
  0
LINE
  5
168
100
AcDbEntity
  8
0
100
AcDbLine
 10
2.363945
 20
-3.523609
 30
0.0
 11
3.863945
 21
-3.523609
 31
0.0
  0
LINE
  5
169
100
AcDbEntity
  8
0
100
AcDbLine
 10
2.363945
 20
-1.523609
 30
0.0
 11
3.863945
 21
-1.523609
 31
0.0
  0
CIRCLE
  5
16A
100
AcDbEntity
  8
0
  6
DASHED
 48
0.1
100
AcDbCircle
 10
3.113945
 20
-2.523609
 30
0.0
 40
0.7874
  0
ARC
  5
16B
100
AcDbEntity
  8
0
100
AcDbCircle
 10
3.113945
 20
-2.523609
 30
0.0
 40
0.689
100
AcDbArc
 50
180.0
 51
360.0
  0
LINE
  5
16C
100
AcDbEntity
  8
0
100
AcDbLine
 10
1.652995
 20
-3.984236
 30
0.0
 11
4.574895
 21
-3.984236
 31
0.0
  0
ARC
  5
16D
100
AcDbEntity
  8
0
100
AcDbCircle
 10
3.113945
 20
-2.523609
 30
0.0
 40
0.689
100
AcDbArc
 50
0.0
 51
180.0
  0
LINE
  5
16E
100
AcDbEntity
  8
0
  6
CENTER
 48
0.1
100
AcDbLine
 10
1.652995
 20
-2.523609
 30
0.0
 11
4.574895
 21
-2.523609
 31
0.0
  0
LINE
  5
16F
100
AcDbEntity
  8
0
100
AcDbLine
 10
1.652995
 20
-1.062982
 30
0.0
 11
4.574895
 21
-1.062982
 31
0.0
  0
LINE
  5
170
100
AcDbEntity
  8
0
  6
DASHED
 48
0.1
100
AcDbLine
 10
1.786595
 20
-3.984236
 30
0.0
 11
1.786595
 21
-1.437982
 31
0.0
  0
LINE
  5
171
100
AcDbEntity
  8
0
  6
DASHED
 48
0.1
100
AcDbLine
 10
2.192595
 20
-3.984236
 30
0.0
 11
2.192595
 21
-1.437982
 31
0.0
  0
LINE
  5
172
100
AcDbEntity
  8
0
  6
DASHED
 48
0.1
100
AcDbLine
 10
1.652995
 20
-1.437982
 30
0.0
 11
2.294095
 21
-1.437982
 31
0.0
  0
LINE
  5
173
100
AcDbEntity
  8
0
  6
DASHED
 48
0.1
100
AcDbLine
 10
2.294095
 20
-1.437982
 30
0.0
 11
2.294095
 21
-1.062982
 31
0.0
  0
LINE
  5
174
100
AcDbEntity
  8
BALLSCREWS
100
AcDbLine
 10
-0.073229
 20
2.330462
 30
0.0
 11
-0.073229
 21
2.035187
 31
0.0
  0
LINE
  5
175
100
AcDbEntity
  8
BALLSCREWS
100
AcDbLine
 10
-0.073229
 20
1.739912
 30
0.0
 11
-0.073229
 21
2.035187
 31
0.0
  0
ARC
  5
176
100
AcDbEntity
  8
BALLSCREWS
100
AcDbCircle
 10
-0.348819
 20
2.035187
 30
0.0
 40
0.098425
100
AcDbArc
 50
270.0
 51
90.0
  0
ARC
  5
177
100
AcDbEntity
  8
0
100
AcDbCircle
 10
2.363945
 20
-3.273609
 30
0.0
 40
0.25
100
AcDbArc
 50
180.0
 51
270.0
  0
ARC
  5
178
100
AcDbEntity
  8
0
100
AcDbCircle
 10
2.363945
 20
-1.773609
 30
0.0
 40
0.25
100
AcDbArc
 50
90.0
 51
180.0
  0
LINE
  5
179
100
AcDbEntity
  8
0
100
AcDbLine
 10
2.113945
 20
-3.273609
 30
0.0
 11
2.113945
 21
-1.773609
 31
0.0
  0
CIRCLE
  5
17A
100
AcDbEntity
  8
0
100
AcDbCircle
 10
2.397991
 20
-3.239405
 30
0.0
 40
0.125
  0
CIRCLE
  5
17B
100
AcDbEntity
  8
0
100
AcDbCircle
 10
2.397991
 20
-1.807813
 30
0.0
 40
0.125
  0
LINE
  5
17C
100
AcDbEntity
  8
0
100
AcDbLine
 10
1.652995
 20
-2.523609
 30
0.0
 11
1.652995
 21
-3.984236
 31
0.0
  0
LINE
  5
17D
100
AcDbEntity
  8
0
  6
CENTER
 48
0.1
100
AcDbLine
 10
1.989595
 20
-2.523609
 30
0.0
 11
1.989595
 21
-3.984236
 31
0.0
  0
LINE
  5
17E
100
AcDbEntity
  8
0
  6
CENTER
 48
0.1
100
AcDbLine
 10
1.989595
 20
-2.523609
 30
0.0
 11
1.989595
 21
-1.062982
 31
0.0
  0
LINE
  5
17F
100
AcDbEntity
  8
0
100
AcDbLine
 10
1.652995
 20
-2.523609
 30
0.0
 11
1.652995
 21
-1.062982
 31
0.0
  0
LINE
  5
180
100
AcDbEntity
  8
BALLSCREWS
100
AcDbLine
 10
-0.073229
 20
-2.228334
 30
0.0
 11
-0.073229
 21
-2.523609
 31
0.0
  0
LINE
  5
181
100
AcDbEntity
  8
BALLSCREWS
100
AcDbLine
 10
-0.073229
 20
-2.818884
 30
0.0
 11
-0.073229
 21
-2.523609
 31
0.0
  0
ARC
  5
182
100
AcDbEntity
  8
BALLSCREWS
100
AcDbCircle
 10
-0.348819
 20
-2.523609
 30
0.0
 40
0.098425
100
AcDbArc
 50
270.0
 51
90.0
  0
LINE
  5
183
100
AcDbEntity
  8
0
  6
DASHED
 48
0.1
100
AcDbLine
 10
3.933795
 20
-1.437982
 30
0.0
 11
4.574895
 21
-1.437982
 31
0.0
  0
LINE
  5
184
100
AcDbEntity
  8
0
  6
DASHED
 48
0.1
100
AcDbLine
 10
3.933795
 20
-1.437982
 30
0.0
 11
3.933795
 21
-1.062982
 31
0.0
  0
LINE
  5
185
100
AcDbEntity
  8
0
  6
DASHED
 48
0.1
100
AcDbLine
 10
4.441295
 20
-3.984236
 30
0.0
 11
4.441295
 21
-1.437982
 31
0.0
  0
LINE
  5
186
100
AcDbEntity
  8
0
  6
DASHED
 48
0.1
100
AcDbLine
 10
4.035295
 20
-3.984236
 30
0.0
 11
4.035295
 21
-1.437982
 31
0.0
  0
ARC
  5
187
100
AcDbEntity
  8
0
100
AcDbCircle
 10
3.863945
 20
-3.273609
 30
0.0
 40
0.25
100
AcDbArc
 50
270.0
 51
360.0
  0
ARC
  5
188
100
AcDbEntity
  8
0
100
AcDbCircle
 10
3.863945
 20
-1.773609
 30
0.0
 40
0.25
100
AcDbArc
 50
360.0
 51
90.0
  0
LINE
  5
189
100
AcDbEntity
  8
0
100
AcDbLine
 10
4.113945
 20
-3.273609
 30
0.0
 11
4.113945
 21
-1.773609
 31
0.0
  0
LINE
  5
18A
100
AcDbEntity
  8
0
  6
CENTER
 48
0.1
100
AcDbLine
 10
3.113945
 20
-3.984236
 30
0.0
 11
3.113945
 21
-1.062982
 31
0.0
  0
CIRCLE
  5
18B
100
AcDbEntity
  8
0
100
AcDbCircle
 10
3.829899
 20
-3.239405
 30
0.0
 40
0.125
  0
CIRCLE
  5
18C
100
AcDbEntity
  8
0
100
AcDbCircle
 10
3.829899
 20
-1.807813
 30
0.0
 40
0.125
  0
LINE
  5
18D
100
AcDbEntity
  8
0
  6
CENTER
 48
0.1
100
AcDbLine
 10
4.238295
 20
-2.523609
 30
0.0
 11
4.238295
 21
-3.984236
 31
0.0
  0
LINE
  5
18E
100
AcDbEntity
  8
0
100
AcDbLine
 10
4.574895
 20
-2.523609
 30
0.0
 11
4.574895
 21
-3.984236
 31
0.0
  0
LINE
  5
18F
100
AcDbEntity
  8
0
  6
CENTER
 48
0.1
100
AcDbLine
 10
4.238295
 20
-2.523609
 30
0.0
 11
4.238295
 21
-1.062982
 31
0.0
  0
LINE
  5
190
100
AcDbEntity
  8
0
100
AcDbLine
 10
4.574895
 20
-2.523609
 30
0.0
 11
4.574895
 21
-1.062982
 31
0.0
  0
TEXT
  5
191
100
AcDbEntity
  8
DIMS
100
AcDbText
 10
-3.625877
 20
4.961941
 30
0.0
 40
0.32507
  1
bearing: 7203 angular contact
100
AcDbText
  0
TEXT
  5
192
100
AcDbEntity
  8
DIMS
100
AcDbText
 10
-3.625877
 20
5.503724
 30
0.0
 40
0.32507
  1
Bearing block
100
AcDbText
  0
ENDSEC
  0
SECTION
  2
OBJECTS
  0
DICTIONARY
  5
1B
100
AcDbDictionary
  3
ACAD_GROUP
350
19
  3
ACAD_MLINESTYLE
350
1A
  0
DICTIONARY
  5
19
102
{ACAD_REACTORS
330
1B
102
}
100
AcDbDictionary
  0
DICTIONARY
  5
1A
102
{ACAD_REACTORS
330
1B
102
}
100
AcDbDictionary
  3
STANDARD
350
1C
  0
MLINESTYLE
  5
1C
102
{ACAD_REACTORS
330
1A
102
}
100
AcDbMlineStyle
  2
STANDARD
 70
     0
  3

 62
     0
 51
90.0
 52
90.0
 71
     2
 49
0.5
 62
   256
  6
BYLAYER
 49
-0.5
 62
   256
  6
BYLAYER
  0
ENDSEC
  0
EOF
